Oops, an error
Loading. Please wait.

Pearl Of The Quarter bass

version 2
version 2

Whole song

127 views 9 this week
no commentswrite comment
1 2 3 4 5
2 more votes to show rating
add to favorites
×
Save as Personal and add changes to this tab that will be seen only by you. Learn more ›
×
You can save this tab as Personal to edit and correct it or add notes. All changes will be seen only by you. Learn more »
launch autoscroll
font size
0
reset
guitar tuner
edit
Autoscroll
slow
fast
+/-
esc
set tempo
stop
Author
                                Pearl Of The Quarter
                                     Steely Dan

Bass                                                              Donald Fagen
                                                                 Walter Becker
As played by Walter Becker

In 2/2

Intro

|-----------------|-----------------|-----------------|-----------------|
|-----2---3---5---|(5)----------2---|-3-------3---2---|(2)--------------|
|-3---------------|-----------------|-----3-----------|-------------0---|
|-----------------|-----------------|-----------------|-----------------|
  Q   Q   Q   Q     H.          Q     Q   Q   Q   Q     H.          Q

|-----------------|-----------------|-----------------|-----------------|
|-----------------|-----------------|-----------------|-----------------|
|-5---------------|-1---------------|-3---------------|(3)--------------|
|-----------------|-----------------|-----------------|-------------3---|
  W                 W                 W                 H.          Q

Verse 1

|-----------------|-----------------|-----------------|-----------------|
|-----------------|-----------------|-3-------3---2---|(2)--2---2-------|
|-3-----------5-5-|-------------3---|-----3-----------|-------------0-2-|
|-----------------|-3---3-----------|-----------------|-----------------|
  H.          E E   Q   H       Q     Q   Q   Q   Q     Q   Q   Q   E E 

|-----------------|-----------------|-----------------|-----------------|
|-----------------|-------------3---|(3)----------3---|-2---2-------2---|
|-3-----------5-5-|-----2---3-------|---------3-------|---------2-------|
|-----------------|-3---------------|-----------------|-----------------|
  H.          E E   Q   Q   Q   Q     H       Q   Q     Q   Q   Q   Q

|-----------------|-----------------|-----------------|-----------------|
|-----------------|-----------------|-3-------3---2---|(2)--2---2-------|
|-3-----------5-5-|---------2---3---|-----3-----------|-------------0-2-|
|-----------------|-3---3-----------|-----------------|-----------------|
  H.          E E   Q   Q   Q   Q     Q   Q   Q   Q     Q   Q   Q   E E 

|-----------------|-----------------|-----------------|-----------------|
|-----------------|-----------------|-----------------|-----------------|
|-5---5-------5-5-|-1---1-----------|-----------------|-----------------|
|-----------------|-------------1---|-5---------------|(5)----------3-3-|
  Q   H       E E   Q   H       Q     W                 H           E E

Verse 2

|-----------------|-----------------|-----------------|-----------------|
|-----------------|-----------------|-3-------3---2---|(2)--2---2-------|
|-3-----------5-5-|---------2---3---|-----3-----------|-------------0-2-|
|-----------------|-3---3-----------|-----------------|-----------------|
  H.          E E   Q   Q   Q   Q     Q   Q   Q   Q     Q   Q   Q   E E 

|-----------------|-----------------|-----------------|-----------------|
|-----------------|-------------3---|(3)----------3---|-2---2-------2---|
|-3-----------5-5-|-----2---3-------|---------3-------|---------2-------|
|-----------------|-3---------------|-----------------|-----------------|
  H.          E E   Q   Q   Q   Q     H       Q   Q     Q   Q   Q   Q

|-----------------|-----------------|-----------------|-----------------|
|-----------------|-----------------|-3-------3---2---|(2)--2---2-------|
|-3-----------5-5-|---------2---3---|-----3-----------|-------------0-2-|
|-----------------|-3---3-----------|-----------------|-----------------|
  H.          E E   Q   Q   Q   Q     Q   Q   Q   Q     Q   Q   Q   E E 

|-----------------|-----------------|-----------------|-----------------|
|-----------------|-----------------|-----------------|-5-------2---5---|
|-5---5-------5-5-|-1---1-----------|---------7-------|-----3-----------|
|-----------------|---1---------1---|-5---------------|-----------------|
  Q   H       E E   E E H       Q     H       H         Q   Q   Q   Q

Chorus 1

|-----------------|-----------------|-----------------|-----------------|
|-6-----------6---|-5-----------5---|-4-----------4---|-3-----------3---|
|-----------------|-----------------|-----------------|-----------------|
|-----------------|-----------------|-----------------|-----------------|
  H.          Q     H.          Q     H.          Q     H.          Q   

|-----------------|-----------------|-----------------|-----------------|
|-2-----------2---|-1---1-------1---|-0---------------|---------2---5---|
|-----------------|-----------------|---------2---3---|(3)--3-----------|
|-----------------|-----------------|-----3-----------|-----------------|
  H.          Q     Q   H       Q     Q   Q   Q   Q     Q   Q   Q   Q

|-----------------|-----------------|-----------------|-----------------|
|-6-----------6---|-5---5-------5---|-4-----------4---|-3-----------3---|
|-----------------|-----------------|-----------------|-----------------|
|-----------------|-----------------|-----------------|-----------------|
  H.          Q     Q   H       Q     H.          Q     H.          Q   

|-----------------|-----------------|-----------------|-----------------|
|-2-----------2---|-1---1-------1---|-0---------------|-----------------|
|-----------------|-----------------|---------2---3---|(3)--------------|
|-----------------|-----------------|-----3-----------|-------------3-3-|
  H.          Q     Q   H       Q     Q   Q   Q   Q     H.          E E

Interlude

|-----------------|-----------------|-----------------|-----------------|
|-----2---3---5---|(5)----------2---|-3-------3---2---|(2)--------------|
|-3---------------|-----------------|-----3-----------|-------------0---|
|-----------------|-----------------|-----------------|-----------------|
  Q   Q   Q   Q     H.          Q     Q   Q   Q   Q     H.          Q

|-----------------|-----------------|-----------------|-----------------|
|-----------------|-----------------|-----------------|---------7---5---|
|-5-----------0---|-1---------------|-3---------------|(3)--7---------7-|
|-----------------|-----------------|-----------------|-----------------|
  H.          Q     W                 W                 Q   Q   Q   E E

Verse 3

|-----------------|-----------------|-----------------|-----------------|
|-----------------|-----------------|-3-------3---2---|(2)--2---2-------|
|-3-----------5-5-|-------------3---|-----3-----------|-------------0-2-|
|-----------------|-3---3-----------|-----------------|-----------------|
  H.          E E   Q   H       Q     Q   Q   Q   Q     Q   Q   Q   E E 

|-----------------|-----------------|-----------------|-----------------|
|-----------------|-------------3---|(3)----------3---|-2---2-------2---|
|-3-----------5-5-|-----2---3-------|---------3-------|---------2-------|
|-----------------|-3---------------|-----------------|-----------------|
  H.          E E   Q   Q   Q   Q     H       Q   Q     Q   Q   Q   Q

|-----------------|-----------------|-----------------|-----------------|
|-----------------|-----------------|-3-------3---2---|(2)--2---2-------|
|-3-----------5-5-|---------2---3---|-----3-----------|-------------0-2-|
|-----------------|-3---3-----------|-----------------|-----------------|
  H.          E E   Q   Q   Q   Q     Q   Q   Q   Q     Q   Q   Q   E E 

|-----------------|-----------------|-----------------|-----------------|
|-----------------|-----------------|-----------------|-----------------|
|-5---5-------5-5-|-1---1-----------|-----------------|-----------------|
|-----------------|-------------1---|-5---------------|(5)-----0-0--3-3-|
  Q   H       E E   Q   H       Q     W                 H      E E  E E

Verse 4

|-----------------|-----------------|-----------------|-----------------|
|-----------------|-----------------|-3-------3---2---|(2)--2---2-------|
|-3-----------5-5-|---------2---3---|-----3-----------|-------------0-2-|
|-----------------|-3---3-----------|-----------------|-----------------|
  H.          E E   Q   Q   Q   Q     Q   Q   Q   Q     Q   Q   Q   E E 

|-----------------|-----------------|-----------------|-----------------|
|-----------------|-------------3---|(3)----------3---|-2---2-------2---|
|-3-----------5-5-|-----2---3-------|---------3-------|---------2-------|
|-----------------|-3---------------|-----------------|-----------------|
  H.          E E   Q   Q   Q   Q     H       Q   Q     Q   Q   Q   Q

|-----------------|-----------------|-----------------|-----------------|
|-----------------|-----------------|-3-------3---2---|(2)--2---2-------|
|-3-----------5-5-|---------2---3---|-----3-----------|-------------0-2-|
|-----------------|-3---3-----------|-----------------|-----------------|
  H.          E E   Q   Q   Q   Q     Q   Q   Q   Q     Q   Q   Q   E E 

|-----------------|-----------------|-----------------|-----------------|
|-----------------|-----------------|-----------------|-5-------2---5---|
|-5---5-------5-5-|-1---1-----------|---------7-------|-----3-----------|
|-----------------|---1---------1---|-5---------------|-----------------|
  Q   H       E E   E E H       Q     H       H         Q   Q   Q   Q

Chorus 2

|-----------------|-----------------|-----------------|-----------------|
|-6-----------6---|-5-----------5---|-4-----------4---|-3-----------3---|
|-----------------|-----------------|-----------------|-----------------|
|-----------------|-----------------|-----------------|-----------------|
  H.          Q     H.          Q     H.          Q     H.          Q   

|-----------------|-----------------|-----------------|-----------------|
|-2-----------2---|-1-----------1---|-0---------------|---------2---5---|
|-----------------|-----------------|---------2---3---|(3)--3-----------|
|-----------------|-----------------|-----3-----------|-----------------|
  H.          Q     H.          Q     Q   Q   Q   Q     Q   Q   Q   Q

|-----------------|-----------------|-----------------|-----------------|
|-6-----------6---|-5-----------5---|-4-----------4---|-3-----------3---|
|-----------------|-----------------|-----------------|-----------------|
|-----------------|-----------------|-----------------|-----------------|
  H.          Q     H.          Q     H.          Q     H.          Q   

|-----------------|-----------------|-----------------|-----------------|
|-2-----------2---|-1-----------1---|-0---------------|---------2---7-5-|
|-----------------|-----------------|---------2---3---|(3)--3-----------|
|-----------------|-----------------|-----3-----------|-----------------|
  H.          Q     H.          Q     Q   Q   Q   Q     Q   Q   Q   E E

Solo

|---------0-2-5---|-----------------|-----------------|---------3-------|
|-3---3-----------|---------0-2-5---|-------------5---|-5---5-------2---|
|-----------------|-3---3-----------|---------2-5---5-|-----------------|
|-----------------|-----------------|-3---3-3---------|-----------------|
  Q   Q   E E Q     Q   Q   E E Q     Q   E E E E E E   Q   Q   Q   Q

|---------2---5---|-5-2-------------|-----------------|-----------------|
|-3---3-----------|-----5-------2-5-|-5---5-----------|-5---------------|
|-----------------|---------3-------|-----------------|---------------2-|
|-----------------|-----------------|-----------------|-----3\----3-5---|
  Q   Q   Q   Q     E E Q   Q   E E   Q   Q   H         Q   Q   E E E E

|-----------------|-----------------|-----------------|-----------------|
|-----------------|-2---2-2---------|-3---3---------2-|-5---------------|
|-5---5-----------|---2---------2---|-----------3-5---|-----------------|
|-----------------|-----------------|-----------------|-----------------|
  Q   H.            E E E Q.    Q     Q   Q.    E E E   W

|-----------------|-----------------|-----------------|-----------------|
|(5)--------------|-----------------|-----------------|-----------3---3-|
|-----------------|-5---------------|-1---1-------2---|-3-------5-------|
|---------5---7---|-----------------|-----------------|-----------------|
  H       Q   Q     W                 Q   H       Q     H       E Q   E

|-----------------|
|-5-------2---5---|
|-----3-----------|
|-----------------|
  Q   Q   Q   Q

Chorus 3

|-----------------|-----------------|-----------------|-----------------|
|-6-----------6---|-5-----------5---|-4-----------4---|-3-----------3---|
|-----------------|-----------------|-----------------|-----------------|
|-----------------|-----------------|-----------------|-----------------|
  H.          Q     H.          Q     H.          Q     H.          Q   

|-----------------|-----------------|-----------------|-----------------|
|-2-----------2---|-1-----------1---|-0---------------|---------2---5---|
|-----------------|-----------------|---------2---3---|(3)--3-----------|
|-----------------|-----------------|-----3-----------|-----------------|
  H.          Q     H.          Q     Q   Q   Q   Q     Q   Q   Q   Q

|-----------------|-----------------|-----------------|-----------------|
|-6-----------6---|-5-----------5---|-4-----------4---|-3-----------3---|
|-----------------|-----------------|-----------------|-----------------|
|-----------------|-----------------|-----------------|-----------------|
  H.          Q     H.          Q     H.          Q     H.          Q   

|-----------------|-----------------|-----------------|-----------------|
|-2-----------2---|-1-----------1---|-0---------------|-----------------|
|-----------------|-----------------|---------2---3---|(3)----------5-5-|
|-----------------|-----------------|-----3-----------|-----------------|
  H.          Q     H.          Q     Q   Q   Q   Q     H.          E E

Outro

|-----------------|-----------------|-----------------|-----------------|
|-----2---3---5---|(5)----------2---|-3-------3---2---|(2)--------------|
|-3---------------|-----------------|-----3-----------|-------------0---|
|-----------------|-----------------|-----------------|-----------------|
  Q   Q   Q   Q     H.          Q     Q   Q   Q   Q     H.          Q

|-----------------|-----------------|-----------------|----------------||
|-----------------|-----------------|-----------------|----------------||
|-5---------------|-1---------------|-3---------------|(3)-------------||
|-----------------|-----------------|-----------------|----------------||
  W                 W                 W                 W
                    Rit . . . . . . . . . . . . . . . . .

Key to rhythm notations:

W - Whole Note/Semi-Brieve
H - Half Note/Minim
Q - Quarter Note/Crotchet       Q. - Dotted Quarter Note
E - Eight Note/Quaver           E. - Dotted Eight Note
S - Sixteenth Note/Semi-Quaver  S. - Dotted Sixteenth Note

            
            
Suggest correction
Creating personal tab
Creating personal tab
You can edit any tab online and save it as your Personal.

You can edit, replace or remove any tab part or add personal notes – all changes will be seen only by you.

Personal tabs can be accessed anytime from any device, even offline.
Learn more »
Give kudos to tab author, rate the tab!
1 2 3 4 5
comments
print report bad tab
guest
You may want to rate the tab now too:
select rating
Wanna post a correction for this tab? Suggest correction