Oops, an error
Loading. Please wait.

Peg bass

version 1
version 1

Whole song

Interactive

4,536 views 51 this week
1 commentread comment
1 2 3 4 5
x 3
add to favorites
×
Save as Personal and add changes to this tab that will be seen only by you. Learn more ›
×
You can save this tab as Personal to edit and correct it or add notes. All changes will be seen only by you. Learn more »
launch autoscroll
font size
0
reset
guitar tuner
backing track
0:00
0:00
edit
Autoscroll
slow
fast
+/-
esc
set tempo
stop
Author
Difficulty
                                       Peg
                                    Steely Dan

Bass                                                              Donald Fagen
                                                                 Walter Becker
As played by Chuck Rainey

Transcribed in 2/2 for clarity.

Intro - Fingerstyle

|-----------------|-----------------|-----------------|-----------------|
|-----------------|-----------------|-----------------|-----------------|
|-----------------|-----------------|-----------------|-----------------|
|-3---------------|(3)--------------|-2---------------|(2)--------------|
  W                 W                 W                 W

|-----------------|--------------14-|-13--------------|(13)-------------|
|-----------------|-----7/10-12-----|-----------------|-----------------|
|-----------------|-----------------|-----------------|-----------------|
|-1---------------|(1)--------------|-0---------------|(0)--------------|
  W                 Q   E E  Q   Q    W                 W

|-8---------------|(8)--------------|-7---------------|(7)--------------|
|-----------------|-----------------|-----------------|-----------------|
|-6---------------|(6)--------------|-5---------------|(5)--------------|
|-----------------|-----------------|-----------------|-----------------|
  W                 W                 W                 W

|-----------------|-----------------|-----------------|-----------------|
|-----------------|-----------------|-----------------|-----------------|
|-3-----3-----2---|(2)--------------|-3-----3---------|-----------------|
|-----------------|-----------------|-------------3---|(3)----------0---|
  Q   E Q   E Q     W                 Q   E Q   E Q     H.          Q

Verse 1 - Fingerstyle

|-----------------|-----------------|-----------------|-----------------|
|-----------------|-----------------|-----------------|-----5-----------|
|-3-----3---------|-------------5---|-3-----3---------|-------------5---|
|-------------3---|---3---3-5/7-----|-------------3---|---3-----5/7-----|
  Q   E Q   E Q     E Q   E E E Q     Q   E Q   E Q     E E Q   E E Q

|-----------------|-----------------|-----------------|-----------------|
|-----------------|-----5-----------|-----------------|-----5-----------|
|-3-----3---------|-------------5---|-3-----3---------|-------------5---|
|-------------3---|---3-----5/7-----|-------------3---|---3-----5/7-----|
  Q   E Q   E Q     E E Q   E E Q     Q   E Q   E Q     E E Q   E E Q

|-----------5-----|-----5-----------|-----------5-----|-----5-----------|
|-3-----3---------|-------------5---|-3-----3---------|-------------5---|
|-------------3---|---3-----5/7-----|-------------3---|---3-----5/7-----|
|-----------------|-----------------|-----------------|-----------------|
  Q   E Q   E Q     E E Q   E E Q     Q   E Q   E Q     E E Q   E E Q

|-----------------|-----------------|-----------------|-----------------|
|-----------x-----|-----5-----------|-----------x-----|-----------------|
|-3-----3---------|-------------5---|-3-----3---------|-------------5---|
|-------------3---|---3---3-5/7-----|-------------3---|---3---x-5/7-----|
  Q   E Q   E Q     E E E E E E Q     Q   E Q   E Q     E E E E E E Q

|-----------x-----|-----7-----------|-----------5-----|-----------------|
|-5-----5---------|-------------7---|-3-----3---------|-------------5---|
|-------------5---|---5-----7/8-----|-------------3---|---3---x-5/7-----|
|-----------------|-----------------|-----------------|-----------------|
  Q   E Q   E Q     E E Q   E E Q     Q   E Q   E Q     E E E E E E Q

|-----------------|-----------------|-----------------|-----------------|
|-7---5-----------|-----------------|-----5-5-7---5---|---5-------------|
|-------5-7-7-5---|-----------------|---------------5-|(5)--5-------2---|
|-----------------|-3---3-----------|-----------------|---------3-------|
  Q   E E E E Q     Q   Q   H         Q   E E Q   E E   E E Q   Q   Q

Verse 2 - Fingerstyle

|-----------------|-----------------|-----------------|-----------------|
|-----------------|-----------------|-----------x-----|-----5-----------|
|-3-----3---------|-------------5---|-3-----3---------|-------------5---|
|-------------3---|---3---3-5/7-----|-------------3---|---3-----5/7-----|
  Q   E Q   E Q     E Q   E E E Q     Q   E Q   E Q     E E Q   E E Q

|-----------------|-----------------|-----------------|-----------------|
|-----------x-----|-----5-----------|-----------x-----|-----5-----------|
|-3-----3---------|-------------5---|-3-----3---------|-------------5---|
|-------------3---|---3-----5/7-----|-------------3---|---3-----5/7-----|
  Q   E Q   E Q     E E Q   E E Q     Q   E Q   E Q     E E Q   E E Q

|-----------5-----|-----5-----------|-----------x-----|-----------------|
|-3-----3---------|-------------5---|-3-----3---------|-------------5---|
|-------------3---|---x-----5/7-----|-------------3---|-------x-5/7-----|
|-----------------|-----------------|-----------------|-----------------|
  Q   E Q   E Q     E E Q   E E Q     Q   E Q   E Q     Q   E E E E Q

|-----------------|-----------------|-----------------|-----------------|
|-----------5-----|-----5-----------|-----------------|-----5-----------|
|-3-----3---------|-------------5---|-x-----3---------|-------------5---|
|-------------3---|---x-----5/7-----|-------------3---|---3-----5/7-----|
  Q   E Q   E Q     E E Q   E E Q     Q   E Q   E Q     E E Q  E E Q

|-----------5-----|-----7-----------|-----------5-----|-----5-----------|
|-5-----5---------|-------------7---|-3-----3---------|-------------5---|
|-------------5---|---x-----7/8-----|-------------3---|---x-----5/7-----|
|-----------------|-----------------|-----------------|-----------------|
  Q   E Q   E Q     E E Q   E E Q     Q   E Q   E Q     E E Q   E E Q

|-----------------|-----------------|-----------------|-----------------|
|-7---5-----------|-----------------|-----5-5-7---5---|---5-------------|
|-------5---7-5---|-----------------|---------------5-|(5)--5-------2---|
|-----------------|-3---3-----------|-----------------|---------3-------|
  Q   E Q   E Q     Q   Q   H         Q   E E Q   E E   E E Q   Q   Q

Chorus 1 - Slap

|-----5-------5---|---------4-------|-----2-----------|-----------------|
|-----------------|-----------------|-----------------|-----2-2---------|
|-3-------3-3---3-|-2-----2---------|-0---------------|-----------------|
|-----------------|-----------------|-------------0-0-|(0)0-----3---0---|
  Q   Q   E E E E   Q.    E H         Q   E Q.    E E   E E E E Q   Q

|-----5-------5---|-----4---4-------|-----2-----2-----|-----------------|
|-----------------|-----------------|-----------------|-----2---4---5---|
|-3-------3-3---3-|-2-----2---------|-0---------------|-----------------|
|-----------------|-----------------|-------------0-0-|(0)0-------------|
  Q   Q   E E E E   Q   E E H         Q   E Q   E E E   E E Q   Q   Q

|-----6-----6-----|-------------5---|-----------------|-----------------|
|-----------------|-----------------|-----5-----5-----|-----------------|
|-4-----4-----3---|-----x-x-3-------|-----------------|-------------1---|
|-----------------|-----------------|-3-----3-----2---|(2)--x-x-4-------|
  Q   E Q   E Q     Q   E E Q   Q     Q   E Q   E Q     Q   E E Q   Q

|-----4-----4-----|-----------------|-----7-----7-----|-----7/9---------|
|-----------------|-----------------|-----------------|-----------------|
|-2-----2---------|-----------------|-5-----5-----5---|(5)----------x---|
|-------------0---|(0)--5-0-2---3---|-----------------|-----------------|
  Q   E Q   E Q     Q   E E Q   Q     Q   E Q   E Q     Q   E Q.    Q

Interlude - Fingerstyle

|-----------------|-----------------|-----------------|-----------------|
|-----------------|-----------------|-----------x-----|-----5-----------|
|-3-----3---------|-------------5---|-3-----3---------|-----------------|
|-------------3---|---3-5-3-5/7-----|-------------3---|---3-----0---3---|
  Q   E Q   E Q     E E E E E E Q     Q   E Q   E Q     E E Q   Q   Q

|-----------------|-----------------|-----------------|-----------------|
|-----------------|---------2-------|(2)--------------|-----------------|
|-------------2---|(2)--------------|-----2-----------|-3---------------|
|-2---------------|-----------------|-----------------|-----------------|
  H.          Q     H       H         Q   H.            W

|-----------------|-----------------|-----------------|-----------------|
|-----------------|-----------------|-----------------|-----------------|
|-----------------|-----------------|-----------------|-----------------|
|-3---------------|(3)--------------|-2---------------|(2)--------------|
  W                 W                 W                 W

|-----------------|--------------14-|-13--------------|(13)-------------|
|-----------------|-----7/10-12-----|-----------------|-----------------|
|-----------------|-----------------|-----------------|-----------------|
|-1---------------|(1)--------------|-0---------------|(0)--------------|
  W                 Q   E E  Q   Q    W                 W

|-8---------------|(8)--------------|-7---------------|(7)--------------|
|-----------------|-----------------|-----------------|-----------------|
|-6---------------|(6)--------------|-5---------------|(5)--------------|
|-----------------|-----------------|-----------------|-----------------|
  W                 W                 W                 W

|-----------------|-----------------|-----------------|-----------------|
|-----------------|-----------------|-----------------|-----5-----------|
|-3-----3-----2---|(2)--------------|-3-----3---------|-----------------|
|-----------------|-----------------|-------------3---|(3)------0---3---|
  Q   E Q   E Q     W                 Q   E Q   E Q     Q   Q   Q   Q

Solo - Fingerstyle

|-----------------|-----------------|-----------------|-----------------|
|-----------------|-----------------|-----------x-----|-----5-----------|
|-3-----3---------|-------------5---|-3-----3---------|-------------5---|
|-------------3---|---3-3-3-5/7-----|-------------3---|---3-----5/7-----|
  Q   E Q   E Q     E E E E E E Q     Q   E Q   E Q     E E Q   E E Q

|-----------------|-----------------|-----------------|-----------------|
|-----------x-----|-----x-----------|-----------x-----|-----5-----------|
|-3-----3---------|-------------5---|-3-----3---------|-------------5---|
|-------------3---|---3-----5/7-----|-------------3---|---3-----5/7-----|
  Q   E Q   E Q     E E Q   E E Q     Q   E Q   E Q     E E Q   E E Q

|-----------5-----|-----5-----------|-----------5-----|-----5-----------|
|-3-----3---------|-------------5---|-3-----3---------|-------------5---|
|-------------3---|---3-----5/7-----|-------------3---|---3-----5/7-----|
|-----------------|-----------------|-----------------|-----------------|
  Q   E Q   E Q     E E Q   E E Q     Q   E Q   E Q     E E Q   E E Q

|-----------------|-----------------|-----------------|-----------------|
|-----------x-----|-----5-----------|-----------x-----|-----5-----------|
|-3-----3---------|-------------5---|-3-----3---------|-------------5---|
|-------------3---|---3-----5/7-----|-------------3---|---3-----5/7-----|
  Q   E Q   E Q     E E Q   E E Q     Q   E Q   E Q     E E Q  E E Q

|-----------------|-----7-----------|-----------x-----|-----5-----------|
|-5-----5---x-----|-------------7---|-3-----3---------|-------------5-5-|
|-------------5---|---5-----7/8-----|-------------3---|---3-----5/7-----|
|-----------------|-----------------|-----------------|-----------------|
  Q   E Q   E Q     E E Q   E E Q     Q   E Q   E Q     E E Q   E E E E

|-----------------|-----------------|-----------------|-----------------|
|-7---5-----------|-----------------|-----5-5-7---5---|---5-------------|
|-------5---7-5---|-----------------|---------------5-|(5)--5-------2---|
|-----------------|-3---3-----------|-----------------|---------3-------|
  Q   E Q   E Q     Q   Q   H         Q   E E Q   E E   E E Q   Q   Q

Verse 3 - Fingerstyle

|-----------------|-----------------|-----------------|-----------------|
|-----------------|-----------------|-----------x-----|-----x-----------|
|-3-----3---------|-------------5---|-3-----3---------|-------------5---|
|-------------3---|---------5/7-----|-------------3---|---3-----5/7-----|
  Q   E Q   E Q     H       E E Q     Q   E Q   E Q     E E Q   E E Q

|-----------------|-----------------|-----------------|-----------------|
|-----------x-----|-----5-----------|-----------x-----|-----5-----------|
|-3-----3---------|-------------5---|-3-----3---------|-------------5---|
|-------------3---|---3-----5/7-----|-------------3---|---3-----5/7-----|
  Q   E Q   E Q     E E Q   E E Q     Q   E Q   E Q     E E Q   E E Q

|-----------5-----|-----5-----------|-----------x-----|-----5-----------|
|-3-----3---------|-------------5---|-3-----3---------|-------------5---|
|-------------3---|---3-----5/7-----|-------------3---|---3-----5/7-----|
|-----------------|-----------------|-----------------|-----------------|
  Q   E Q   E Q     E E Q   E E Q     Q   E Q   E Q     E E Q   E E Q

|-----------------|-----------------|-----------------|-----------------|
|-----------x-----|-----5-----------|-----------x-----|-----------------|
|-3-----3---------|-------------5---|-3-----3---------|-------------5---|
|-------------3---|---3---3-5/7-----|-------------3---|---3---x-5/7-----|
  Q   E Q   E Q     E E E E E E Q     Q   E Q   E Q     E E E E E E Q

|-----------x-----|-----7-----------|-----------x-----|-----5-----------|
|-5-----5---------|-------------7---|-3-----3---------|-------------5---|
|-------------5---|---5-----7/8-----|-------------3---|---3-----5/7-----|
|-----------------|-----------------|-----------------|-----------------|
  Q   E Q   E Q     E E Q   E E Q     Q   E Q   E Q     E E Q   E E Q

|-----------------|-----------------|-----------------|-----------------|
|-7---5-----------|-----------------|-----5-5-7---5---|---5-------------|
|-------5---7-5---|-----------------|---------------5-|(5)--5-------2---|
|-----------------|-3---3-----------|-----------------|---------3-------|
  Q   E Q   E Q     Q   Q   H         Q   E E Q   E E   E E Q   Q   Q

Chorus 2/Outro - Slap

|-----5-------5---|---------4-------|-----2-----------|-----------------|
|-----------------|-----------------|-----------------|-----2-2---------|
|-3-------3-3---3-|-2-----2---------|-0---------------|-----------------|
|-----------------|-----------------|-------------0-0-|(0)0-----3---0---|
  Q   Q   E E E E   Q.    E H         Q   E Q.    E E   E E E E Q   Q

|-----5-------5---|-----4---4-------|-----2-----2-----|-----------------|
|-----------------|-----------------|-----------------|-----2---4---5---|
|-3-------3-3---3-|-2-----2-----2---|-0---------------|-----------------|
|-----------------|-----------------|-------------0-0-|(0)0-------------|
  Q   Q   E E E E   Q   E E Q   Q     Q   E Q   E E E   E E Q   Q   Q

|-----6-----6-----|-------------5---|-----------------|-----------------|
|-----------------|-----------------|-----5-----5-----|-----------------|
|-4-----4-----3---|-----x-x-3-------|-----------------|-------------1---|
|-----------------|-----------------|-3-----3-----2---|(2)--x-x-4-------|
  Q   E Q   E Q     Q   E E Q   Q     Q   E Q   E Q     Q   E E Q   Q

|-----4-----4-----|-----------------|-----7-----7-----|-----7/9---7-----|
|-----------------|-----------------|-----------------|-----------------|
|-2-----2---------|-----------------|-5-----------5---|(5)----------x---|
|-------------0---|(0)--5-0-2---3---|-----------------|-----------------|
  Q   E Q   E Q     Q   E E Q   Q     Q   E Q   E Q     Q   E Q   E Q

|-----5-------5---|---------4-------|-----2-----------|-----------------|
|-----------------|-----------------|-----------------|-----2-2---------|
|-3-------3-3---3-|-2-----2---------|-0---------------|-------------2---|
|-----------------|-----------------|-------------0-0-|(0)0-----0-------|
  Q   Q   E E E E   Q.    E H         Q   E Q.    E E   E E E E Q   Q

|-----5-------5---|-----4---4-------|-----2-----2-----|-----------------|
|-----------------|-----------------|-----------------|-----2---4---5---|
|-3-------3-3---3-|-2-----2-----2---|-0---------------|-----------------|
|-----------------|-----------------|-------------0-0-|(0)0-------------|
  Q   Q   E E E E   Q   E E Q   Q     Q   E Q   E E E   E E Q   Q   Q

|-----6-----6-----|-------x-----5---|-----------------|-----------------|
|-----------------|-----------------|-----5-----5-----|-----------------|
|-4-----4-----3---|-----x---3-------|-----------------|-------------1---|
|-----------------|-----------------|-3-----3-----2---|(2)--x-x-4-------|
  Q   E Q   E Q     Q   E E Q   Q     Q   E Q   E Q     Q   E E Q   Q

|-----4-----4-----|-----------------|-----7-----7-----|-----7/9---------|
|-----------------|-----------------|-----------------|-----------------|
|-2-----2---------|-----------------|-5-----------5---|(5)----------5---|
|-------------0---|(0)--5-0-2---3---|-----------------|-----------------|
  Q   E Q   E Q     Q   E E Q   Q     Q   E Q   E Q     Q   E Q.    Q

|-----5-------5---|---------4-------|-----2-----------|-----------------|
|-----------------|-----------------|-----------------|-----x-x-2-------|
|-3-------3-----3-|-2-----2---------|-0---------------|-------------2---|
|-----------------|-----------------|-------------0-0-|(0)0-------------|
  Q   Q   Q   E E   Q.    E H         Q   E Q.    E E   E E E E Q   Q

|-----5-------5---|-----4---4-------|-----2-----2-----|-----------------|
|-----------------|-----------------|-----------------|-----2---4---5---|
|-3-------3-----3-|-2-----2-----2---|-0---------------|-----------------|
|-----------------|-----------------|-------------0-0-|(0)0-------------|
  Q   Q   Q   E E   Q   E E Q   Q     Q   E Q   E E E   E E Q   Q   Q

|-----6-----6-----|-------x-----5---|-----------------|-----------------|
|-----------------|-----------------|-----5-----5-----|-------x---------|
|-4-----4-----3---|-----x---3-------|-----------------|-------------1---|
|-----------------|-----------------|-3-----3-----2---|(2)--x---4-------|
  Q   E Q   E Q     Q   E E Q   Q     Q   E Q   E Q     Q   E E Q   Q

|---4---4---4-----|-----------------|-----7-----7-----|-----7/9---------|
|-----------------|-----------------|-----------------|-----------------|
|-2---------------|-----------------|-5-----------5---|(5)----------5---|
|-------------0---|(0)--5-0-2---3---|-----------------|-----------------|
  E E E Q   E Q     Q   E E Q   Q     Q   E Q   E Q     Q   E Q.    Q

||------5-------5---|-----4---4-------|-----2-----------|-----------------|
||o-----------------|-----------------|-----------------|-----2-2---------|
||o-3-------3-3---3-|-2-----2-----2---|-0---------------|-------------2---|
||------------------|-----------------|-------------0-0-|(0)0-----0-------|
    Q   Q   E E E E   Q   E E Q   Q     Q   E Q.    E E   E E E E Q   Q
 
|-----5-------5---|-----4---4-------|-----2-----2-----|-----------------|
|-----------------|-----------------|-----------------|---------4---5---|
|-3-------3-3---3-|-2-----2-----2---|-0---------------|-----------------|
|-----------------|-----------------|-------------0-0-|(0)0-0-----------|
  Q   Q   E E E E   Q   E E Q   Q     Q   E Q   E E E   E E Q   Q   Q

|-----6-----6-----|-------x-----5---|-----------------|-----------------|
|-----------------|-----------------|-----5-----5-----|-------x---------|
|-4-----4-----3---|-----x---3-------|-----------------|-------------1---|
|-----------------|-----------------|-3-----3-----2---|(2)--x---4-------|
  Q   E Q   E Q     Q   E E Q   Q     Q   E Q   E Q     Q   E E Q   Q

                                                           Repeat to fade
|-----4-----4-----|-----------------|-----7-----7-----|-----7/9----------||
|-----------------|-----------------|-----------------|-----------------o||
|-2-----2---------|-----------------|-5-----------5---|(5)----------5---o||
|-------------0---|(0)--x-0-2---3---|-----------------|------------------||
  Q   E Q   E Q     Q   E E Q   Q     Q   E Q   E Q     Q   E Q.    Q

Key to rhythm notations:

W - Whole Note/Semi-Brieve
H - Half Note/Minim
Q - Quarter Note/Crotchet       Q. - Dotted Quarter Note
E - Eight Note/Quaver           E. - Dotted Eight Note
S - Sixteenth Note/Semi-Quaver  S. - Dotted Sixteenth Note


            
            
Suggest correction
Creating personal tab
Creating personal tab
You can edit any tab online and save it as your Personal.

You can edit, replace or remove any tab part or add personal notes – all changes will be seen only by you.

Personal tabs can be accessed anytime from any device, even offline.
Learn more »
Give kudos to tab author, rate the tab!
1 2 3 4 5
comments
print report bad tab
1 comment total.
0 reply
bruce51 107 Aug 25, 2017 11:54 AM

In the intro, 3rd row, you should have E-11 with G-12 then E-10 with G-11 instead of A-6 with G-8 and A-5 with G-7.

guest
You may want to rate the tab now too:
select rating
Wanna post a correction for this tab? Suggest correction