Oops, an error
Loading. Please wait.

Peg Chords

version 2
version 2

Whole song

Interactive

7,167 views 51 this week
no commentswrite comment
1 2 3 4 5
please rate
add to favorites
launch autoscroll
font size
0
reset
transpose
0
reset
display chords
guitar tuner
Autoscroll
slow
fast
+/-
esc
set tempo
stop
Help us to improve Ultimate-Guitar.com Take our survey!
×
Author
Difficulty
intermediate
Peg- Steely Dan

Tabbed by: Pat Sullivan (aka: currentmaster@yahoo.com)
How I play it. Also, Much easier to read than the other tab I've seen!
Standard Tuning


Intro Chords:

       Dmaj7  F#7(#9#5)   Cmaj7   E7(#9#5)  A#maj7  D7(#9#5)
E--------9-------10---------7--------8---------5--------6----|
B-------10-------10---------8--------8---------6--------6----|
G-------11--------9---------9--------7---------7--------5----|
D-------11--------8---------9--------6---------7--------4----|
A--------x--------9---------x--------7---------x--------5----|
E-------10--------x---------8--------x---------6--------x----|

      Cmaj7    B7(#9#5)   (repeat 2nd phrase X 4)
E-------3---------3------|
B-------5---------3------|
G-------4---------2------|
D-------5---------1------|
A-------3---------2------|
E-------x---------x------|



Verse Chords:
                  Cmaj7    B7(#9#5)  Cmaj7   B7(#9#5)
E-------------------3---------3--------3--------3----------|
B-------------------5---------3--------5--------3----------|
G-------------------4---------2--------4--------2----------|
D-------------------5---------1--------5--------1----------|
A-------------------3---------2--------3--------2----------|
E-------------------x---------x--------x--------x----------|
   I've seen your picture                             Your
       I like your pin shot                            I

                  Cmaj7    B7(#9#5)  Cmaj7   B7(#9#5)
E-------------------3---------3--------3--------3----------|
B-------------------5---------3--------5--------3----------|
G-------------------4---------2--------4--------2----------|
D-------------------5---------1--------5--------1----------|
A-------------------3---------2--------3--------2----------|
E-------------------x---------x--------x--------x----------|
   name in lights above it
 keep it with your letter

                  Fmaj7   E7(#9#5)   Fmaj7   E7(#9#5)
E-------------------8---------8--------8---------8--------|
B------------------10---------8-------10---------8--------|
G-------------------9---------7--------9---------7--------|
D------------------10---------6-------10---------6--------|
A-------------------8---------7--------8---------7--------|
E-------------------x---------x--------x---------x--------|
  It was your big debut
       Done up in blueprint blue

                  Cmaj7    B7(#9#5)  Cmaj7   B7(#9#5)
E-------------------3---------3--------3--------3----------|
B-------------------5---------3--------5--------3----------|
G-------------------4---------2--------4--------2----------|
D-------------------5---------1--------5--------1----------|
A-------------------3---------2--------3--------2----------|
E-------------------x---------x--------x--------x----------|
           Like a dream come true
     It sure looks good  on  you

                  Gmaj7  F#7(#9#5)   Fmaj7   E7(#9#5)
E------------------10--------10--------8---------8--------|
B------------------12--------10-------10---------8--------|
G------------------11---------9--------9---------7--------|
D------------------12---------8-------10---------6--------|
A------------------10---------9--------8---------7--------|
E-------------------x---------x--------x---------x--------|
  And when you smile for the camera                 I know
  And when you smile for the camera                 I know

                  Cmaj7    B7(#9#5)  Cmaj7   B7(#9#5)
E-------------------3---------3--------3--------3----------|
B-------------------5---------3--------5--------3----------|
G-------------------4---------2--------4--------2----------|
D-------------------5---------1--------5--------1----------|
A-------------------3---------2--------3--------2----------|
E-------------------x---------x--------x--------x----------|
     theyre gonna love it     Peg
    I'll love you better      Peg



Chorus Chords:
                  Cmaj7    B7(#9#5)      C6add9   Dsus2
E-------------------3---------3-------------0-------0------|
B-------------------5---------3-------------3-------5------|
G-------------------4---------2-------------5-------7------|
D-------------------5---------1-------------5-------7------|
A-------------------3---------2-------------0-------0------|
E-------------------x---------x-------------x-------x------|
                   Peg -      It will come back to you

                  Cmaj7    B7(#9#5)      C6add9   Dsus2
E-------------------3---------3-------------0-------0------|
B-------------------5---------3-------------3-------5------|
G-------------------4---------2-------------5-------7------|
D-------------------5---------1-------------5-------7------|
A-------------------3---------2-------------0-------0------|
E-------------------x---------x-------------x-------x------|
                   Peg -      It will come back to you

                  F#m7     Fmaj9           Em7     F#7
E-------------------9---------8-------------7-------0------|
B------------------10---------8-------------8-------7------|
G-------------------9---------9-------------7-------9------|
D------------------11--------10-------------9-------8------|
A-------------------9---------8-------------7-------9------|
E-------------------x---------x-------------x-------x------|
                  Then -       the shutter falls

                  Bm7     E7(#9#5)     Am7       D7
E------------------7----------8---------5--------0---------|
B------------------7----------8---------5--------3---------|
G------------------7----------7---------5--------5---------|
D------------------7----------6---------5--------4---------|
A------------------9----------7---------7--------5---------|
E------------------7----------x---------5--------x---------|
        You see it all  in   3-D.      Its your favorite

                  Cmaj7    B7(#9#5)  Cmaj7   B7(#9#5)
E-------------------3---------3--------3--------3----------|
B-------------------5---------3--------5--------3----------|
G-------------------4---------2--------4--------2----------|
D-------------------5---------1--------5--------1----------|
A-------------------3---------2--------3--------2----------|
E-------------------x---------x--------x--------x----------|
           foreign movie


Bridge:

     F#m7    Bm7   Cmaj7   Bm7  Cmaj7 ~ Dmaj7 ~ (Dmaj7 is the
E------2------2------3------2------3------5----|  1st chord
B------2------3------5------3------5------7----| of the Intro)
G------2------2------4------2------4------6----|
D------2------4------5------4------5------7----|
A------4------2------3------2------3------5----|
E------2------x------x------x------x------x----|


Typical Arrangement:

Intro/ Verse/ Verse/ Chorus/ Bridge

Intro/ Solo verse/ Verse/ Chorus

Repeat Chorus (x4)

(Live versions usually end with the Bridge)
Suggest correction
Give kudos to tab author, rate the tab!
1 2 3 4 5
comments
print report bad tab
guest
You may want to rate the tab now too:
select rating
Please do not post tabs as comments. Select "correction" instead!