Oops, an error
Loading. Please wait.

Pretzel Logic bass

1,216 views 15 this week
no commentswrite comment
1 2 3 4 5
x 3
add to favorites
×
Save as Personal and add changes to this tab that will be seen only by you. Learn more ›
×
You can save this tab as Personal to edit and correct it or add notes. All changes will be seen only by you. Learn more »
launch autoscroll
font size
0
reset
guitar tuner
backing track
0:00
0:00
edit
Autoscroll
slow
fast
+/-
esc
set tempo
stop
Author
Difficulty
                                   Pretzel Logic
                                     Steely Dan

Bass                                                              Donald Fagen
                                                                 Walter Becker
As played by Wilton Felder

       ___
      | 3 |
E E = Q   E

Intro                           ___
                               | 3 |
|----------------|-------------------|
|---  3 Bars  ---|-------------------|
|---   Rest   ---|-------------------|
|----------------|-------------0-2-3-|
                   H       Q   E E E
                                 ___                 ___                 ___
                                | 3 |               | 3 |               | 3 |
|-----------------|-------------------|-------------------|-------------------|
|-----------------|-------------------|-------------------|-------------2-4-2-|
|-----------------|-------------------|-------------------|-------------------|
|-5-5-5-5-5-5-5-0-|-5-5-5-5-5-5-0-2-3-|-5-5-5-5-5-5-3-2-0-|-5-5-5-5-5-5-------|
  E E E E E E E E   E E E E E E E E E   E E E E E E E E E   E E E E E E E E E

Verse 1
                                                   ___
                                                  | 3 |
|-----------------|-----------------|-------------------|-----------------|
|-----------------|-----------------|-------------2-4-2-|-----------------|
|-----------------|-----------------|-------------------|-----------------|
|-5-5-5-5-5-5-5-3-|-1-1-1-1-1-1-1-3-|-5-5-5-5-5-5-------|-5-5-5-5-5-5-5-0-|
  E E E E E E E E   E E E E E E E E   E E E E E E E E E   E E E E E E E E
                                 ___                 ___                 ___ 
                                | 3 |               | 3 |               | 3 |
|-----------------|-------------------|-------------------|-------------------|
|-----------------|-------------------|-------------------|-------------------|
|-5-5-5-5-5-5-5---|-5-5-5-5-5-5-------|-------------------|---------------3-5-|
|---------------5-|-------------0-2-3-|-5-5-5-5-5-5-5-2-3-|-5-5-5-5-5-5-5-----|
  E E E E E E E E   E E E E E E E E E   E E E E E E E E E   E E E E E E E E E 

Chorus 1       ___                 ___                 ___                 ___ 
              | 3 |               | 3 |               | 3 |               | 3 |
|-------------------|-------------------|-------------------|-------------------|
|-2-------------2-1-|---------------0-1-|-2-------------2-1-|---------------0-1-|
|-------------------|-5-----------------|-------------------|-5-----------------|
|-------5-----------|-------3-----------|-------5-----------|-------3-----------|
  Q.    E Q   E E E   Q.    E Q   E E E   Q.    E Q   E E E   Q.    E Q   E E E

|-----------------|-----------------|-----------------|
|-2---------------|-----------------|-----------------|
|-------0---------|-3-----5-------3-|(3)----------3---|
|-----------------|-----------------|---------------1-|
  Q.    E H         Q.    E Q.    E   H.          E E

Interlude 1                      ___                                   ___
                                | 3 |                                 | 3 |
|-----------------|-------------------|-----------------|-------------------|
|-----------------|-------------5-----|-----------------|-------------------|
|-----------------|---------------5---|-----------------|-------------------|
|-1-1-1-1-1-1-1-1-|-3-3-3-3-3-3-----3-|-5-5-5-5-5-5-5-0-|-5-5-5-5-5-5-5-2-3-|
  E E E E E E E E   E E E E E E E E E   E E E E E E E E   E E E E E E E E E 

Verse 2                          ___                 ___                 ___ 
                                | 3 |               | 3 |               | 3 | 
|-----------------|-------------------|-------------------|-------------------|
|---------------2-|-3-3-3-3-3---------|-------------------|-------------------|
|-----------------|-------------------|-------------------|---------------3-4-|
|-5-5-5-5-5-5-5---|-----------1-2-3-4-|-5-5-5-5-5-5-5-2-3-|-5-5-5-5-5-5-5-----|
  E E E E E E E E   E E E E E E E E E   E E E E E E E E E   E E E E E E E E E 
                                 ___                 ___                 ___ 
                                | 3 |               | 3 |               | 3 | 
|-----------------|-------------------|-------------------|-------------------|
|-----------------|-------------------|-------------------|-------------------|
|-5-5-5-5-5-5-5---|-5-5-5-5-5-5-------|-------------------|---------------3-5-|
|---------------5-|-------------0-2-3-|-5-5-5-5-5-5-5-2-3-|-5-5-5-5-5-5-5-----|
  E E E E E E E E   E E E E E E E E E   E E E E E E E E E   E E E E E E E E E

Chorus 2       ___                 ___                 ___                 ___ 
              | 3 |               | 3 |               | 3 |               | 3 |
|-------------------|-------------------|-------------------|-------------------|
|-2-------------2-1-|---------------0-1-|-2-------------2-1-|---------------0-1-|
|-------------------|-5-----------------|-------------------|-5-----------------|
|-------5-----------|-------3-----------|-------5-----------|-------3-----------|
  Q.    E Q   E E E   Q.    E Q   E E E   Q.    E Q   E E E   Q.    E Q   E E E

|-----------------|-----------------|-----------------|
|-2---------------|-----------------|-----------------|
|-------0---------|-3-----5-------3-|(3)--------------|
|-----------------|-----------------|-----------------|
  Q.    E H         Q.    E Q.    E   W

Interlude 2          ___   ___   ___   ___
                    | 3 | | 3 | | 3 | | 3 |
|-----------------|-------------------------|
|-----------------|---5---5---5---5---5-----|
|-----------------|-------------------------|
|-1-1-1-1-1-1-1-1-|-3---3---3---3---3---3-0-|
  E E E E E E E E   E E E E E E E E E E E E

Solo                                                             ___   ___
                                                                | 3 | | 3 |
|-----------------|-----------------|-----------------|---------------------|
|-----------------|-----------------|-----------------|-------2-5-5-5-5-2---|
|-----------------|-----------------|-----------------|---------------------|
|-5-5-5-5-5-5-5-5-|-5-5-5-5-5-5-5-5-|-5-5-5-5-5-5-5-5-|-5-5-5---------------|
  E E E E E E E E   E E E E E E E E   E E E E E E E E   E E E E E E E E Q
                                                   ___                 ___
                                                  | 3 |               | 3 |
|-----------------|-----------------|-----2-2-0-0-------|-----2-2-0-0-------|
|-----------------|-----3-3-2-2-----|-------------2-4-2-|-------------2-----|
|-----------------|-------------3---|-0-0---------------|-0-0---------------|
|-5-5-5-5-5-5-5-0-|-1-1-----------1-|-------------------|---------------2-3-|
  E E E E E E E E   E E E E E E E E   E E E E E E E E E   E E E E E E E E E
                                                   ___ 
                                                  | 3 |
|-----7-7-5-5-----|-----7-7-5-5-----|-------------------|-----------------|
|-------------7-7-|-------------7---|-----7-7-5-5-2-----|-----7-7-5-5-----|
|-5-5-------------|-5-5-------------|-------------------|-------------7-7-|
|-----------------|-----------------|-5-5-----------2-3-|-5-5-------------|
  E E E E E E E E   E E E E E E E E   E E E E E E E E E   E E E E E E E E
               ___                 ___                 ___                 ___ 
              | 3 |               | 3 |               | 3 |               | 3 |
|-------------------|-------------------|-------------------|-------------------|
|-------------------|-------------------|-------------------|-------------------|
|-7-------------7-6-|-5-------------5-6-|-7-------------7-6-|-5-------------5-6-|
|---7-6-5-----------|---5-4-3-----------|---7-6-5-----------|---5-4-3-----------|
  E E E E Q   E E E   E E E E Q   E E E   E E E E Q   E E E   E E E E Q   E E E
                                 ___
                                | 3 |
|-----------------|---------------3---|-----------------|-----------------|
|-----------------|-3---3-----------3-|-----------------|-----------------|
|-7---------------|---3---1-----------|-0-0-0-0-0-0-0---|-0-0-0-0-0-0-0---|
|---7-6-5---------|-------------------|---------------0-|---------------0-|
  E E E E H         E E E Q.    E E E   E E E E E E E E   E E E E E E E E

|-----------------|-----------------|
|-----------------|-----------------|
|-0-0-0-0-0-0-0---|-0-0-0-0---5-----|
|---------------0-|-----------------|
  E E E E E E E E   E E E E E Q.

Verse 3

|-----------------|-----------------|-----------------|-----------------|
|-----------------|-----------------|-----------------|-----------------|
|-----------------|-----------------|-----------------|-0-0-2-2-3-3-4-4-|
|-5---------------|-1---1-----------|-5---------------|-----------------|
  E E H.            E E E E H         E E H.            E E E E E E E E
                                 ___                 ___
                                | 3 |               | 3 |
|-----------------|-------------------|-------------------|-----------------|
|-----------------|-----------3-5-3---|-------------------|-----------------|
|-5-5-5-5-5-5-5---|-5-5-5-5-5-------5-|-------------5-----|---------------6-|
|---------------5-|-------------------|-5-5-5-5-5-5---2-3-|-5-5-5-5-5-5-5---|
  E E E E E E E E   E E E E E E E E E   E E E E E E E E E   E E E E E E E E

Chorus 3
               ___                 ___                 ___                 ___ 
              | 3 |               | 3 |               | 3 |               | 3 |
|-------------------|-------------------|-------------------|-------------------|
|-------------7-----|-------------------|-------------7-----|-------------5-----|
|-7---------7---7-6-|-5-------------5-6-|-7---------7---7-6-|-5---------5---5-6-|
|-------5-----------|---5-4-3-----------|-------5-----------|---5-4-3-----------|
  Q.    Q   E E E E   E E E Q.    E E E   Q.    Q   E E E E   E E E Q   E E E E

|-----------------|-----------------|-----------------|
|-----------------|-----------------|-----------------|
|-7---------------|-3-----5-------3-|(3)--------------|
|-------5---------|-----------------|---------------1-|
  Q.    E H         Q.    E Q.    E   H.          E E

Interlude 3                                                        ___   ___
                                                                  | 3 | | 3 |
|-----------------|-----------------|-------------------|---------5-2---2-----|
|-----------------|-----------------|-------------------|-------------5---5-2-|
|-----------------|-----------------|-------------------|---------------------|
|-1-1-1-1-1-1-1-1-|-3-3-3-3-3-3-3-4-|-5-5-5-5-5-5-3-2-0-|-5-5-5-5-------------|
  E E E E E E E E   E E E E E E E E   E E E E E E E E E   E E E E E E E E E E
                     ___   ___   ___   ___
                    | 3 | | 3 | | 3 | | 3 |
|-----------------|-------------------------|
|-----------------|---5---5---5---5---5-----|
|-----------------|-------------------------|
|-1-1-1-1-1-1-1-1-|-3---3---3---3---3---3-4-|
  E E E E E E E E   E E E E E E E E E E E E

Outro          ___                                                     ___
              | 3 |                                                   | 3 |
|-------------------|-----------------|-----------------|-------------------|
|-------------2-5-2-|-----------------|-----------------|---------2-2-------|
|-------------------|-----------------|-----------------|-------------5-2---|
|-5-5-5-5-5-5-------|-5-5-5-5-5-5-5-3-|-1-1-1-1-1-1-1-2-|-3-3-3-3---------5-|
  E E E E E E E E E   E E E E E E E E   E E E E E E E E   E E E E E E E E E
               ___             ___   ___                       ___   ___   ___   ___
              | 3 |           | 3 | | 3 |                     | 3 | | 3 | | 3 | | 3 |
|-------------------|-2-2-2-2-2-2-2-2-----|-----------------|-------------------------|
|-------------2-5-2-|-----------------5-2-|-3-3-3-3-3-3-3-4-|-5-3-------3-5-3-5-------|
|-------------------|---------------------|-----------------|-----5---5---------5---5-|
|-5-5-5-5-5-5-------|---------------------|-----------------|-------3-------------3---|
  E E E E E E E E E   E E E E E E E E E E   E E E E E E E E   E E E E E E E E E E E E
                                 ___                 ___         ___   ___   ___
                                | 3 |               | 3 |       | 3 | | 3 | | 3 |
|-2-2-2-2-2-2-2---|-------------------|-------------------|-----------------------|
|---------------2-|-----------------2-|-3-3---------------|-5---5-----------------|
|-----------------|-0-0-0-0-0-0-3-5---|-----5-5-3-3---3---|---5---5-2-5-2---2-----|
|-----------------|-------------------|-------------1---1-|---------------5---5-3-|
  E E E E E E E E   E E E E E E E E E   E E E E E E E E E   E E E E E E E E E E E
               ___             ___   ___                       ___   ___   ___   ___ 
              | 3 |           | 3 | | 3 |                     | 3 | | 3 | | 3 | | 3 | 
|-----------------2-|-2-2-2-2-2-5-2-------|-----------------|-------------------------|
|-------------2-5---|---------------5-2-4-|-----------------|-------------------------|
|-------------------|---------------------|-----------------|-------------------------|
|-5-5-5-5-5-5-------|---------------------|-1-1-1-1-1-1-1-2-|-3-3-3-3-3-3-3-3-3-3-3-3-|
  E E E E E E E E E   E E E E E E E E E E   E E E E E E E E   E E E E E E E E E E E E
               ___             ___   ___                       ___   ___   ___   ___ 
              | 3 |           | 3 | | 3 |                     | 3 | | 3 | | 3 | | 3 | 
|-------------------|---------------------|-----------------|-------------------------||
|-------------2-----|---------------------|---------------3-|-------------------------||
|---------------3-5-|---------------------|-----------------|-------------------------||
|-5-5-5-5-5-5-5-----|-5-5-5-5-0-2-3-5-3-0-|-1-1-1-1-1-1-1---|-3-3-3-3-3-3-3-3-3-3-3-3-||
  E E E E E E E E E   E E E E E E E E E E   E E E E E E E E   E E E E E E E E E E E E


Key to rhythm notations:

W - Whole Note/Semi-Brieve
H - Half Note/Minim
Q - Quarter Note/Crotchet       Q. - Dotted Quarter Note
E - Eight Note/Quaver           E. - Dotted Eight Note
S - Sixteenth Note/Semi-Quaver  S. - Dotted Sixteenth Note

            
            
Suggest correction
Creating personal tab
Creating personal tab
You can edit any tab online and save it as your Personal.

You can edit, replace or remove any tab part or add personal notes – all changes will be seen only by you.

Personal tabs can be accessed anytime from any device, even offline.
Learn more »
Give kudos to tab author, rate the tab!
1 2 3 4 5
comments
print report bad tab
guest
You may want to rate the tab now too:
select rating
Wanna post a correction for this tab? Suggest correction