Oops, an error
Loading. Please wait.

Reelin In The Years Tab

version 2
version 2

Whole song

Interactive

42,071 views 168 this week
2 commentsread comments
1 2 3 4 5
excellent!
x 7
add to favorites
launch autoscroll
font size
0
reset
how to read this tab
guitar tuner
Autoscroll
slow
fast
+/-
esc
set tempo
stop
Help us to improve Ultimate-Guitar.com Take our survey!
×
Author
Difficulty
intermediate
REELIN' IN THE YEARS
As recorded by Steely Dan
(From the 1973 Album CAN'T BUY A THRILL)

Words and Music by Donald Fagen & Walter Becker


           G                    A                    C
      3 5 5 4 3 x          5 7 7 6 5 x          x x 5 5 5 x

Guitar 1 (E A D G B E) - 'Untitled'
Guitar 2 (E A D G B E) - 'Untitled'
Guitar 2 (E A D G B E) - 'Untitled'


[Intro]

Moderate Rock Q=138(8=s8)
4/4
Guitar 1
                                    ~~~
         |-3-|       |-3-|
   E S S E E E a E E E E E   a Q    H.
e|-----------------5---5---|-5h7----5--------------|
B|---7p6p5---5h6h7-------7-|-----------------------|
G|-------------------------|-----------------------|
D|-------------------------|-----------------------|
A|-------------------------|-----------------------|
E|-------------------------|-----------------------|
 |
 | Guitar 2
 | W                           E E  E  E +E  E E E
e|-------------------------|-----------------------|
B|-------------------------|-----------------------|
G|-------------------------|-----------0-(0)-------|
D|-------------------------|-----------------0h2-0-|
A|-------------------------|-------/2--------------|
E|-------------------------|---3-3-----------------|


          |--3--|    |-----3------|                      |--3---|
   +Q     E E   E a  Q    Q   E   E   S S E +H          +E  E   E
e|-(5)----x-x-------------5---5---5-|--------------------------------|
B|--------x-x---7-6s=7--------------|-5h7p5-(5)---------(5)-5h==7----|
G|----------------------------------|--------------------------------|
D|----------------------------------|--------------------------------|
A|----------------------------------|--------------------------------|
E|----------------------------------|--------------------------------|
 |
 |  E  E  E   E     +E  E   E   E     E   E  E  E +E  E  E    E
e|----------------------------------|--------------------------------|
B|----------------------------------|--------------------------------|
G|------------0-----(0)-------------|-----------2-(2)----------------|
D|----------------------0h==2---0---|-----------------2h=4----2------|
A|-------/2-------------------------|-0---0-/4-----------------------|
E|--3--3----------------------------|--------------------------------|


   |----3----|        |--3---| |--3--|
   E   +E    E +Q     E  E   E E E   E   Q   +S   S S S  Q    +S   S S S
e|-------------------------------------|---------------------------------|
B|-------------------------------------|---------------------------------|
G|-5b6-(5)-----------------------------|---------------------------------|
D|---------------------------7-7-9-----|-9---(9)h10p9p7--9----(9)h10p9p7-|
A|-----------7-(7)----7--9-------------|---------------------------------|
E|-------------------------------------|---------------------------------|
 |
 | E       E    E  E +E    E   E   E     E E  E     E   +E  E  E     E
e|-------------------------------------|---------------------------------|
B|-------------------------------------|---------------------------------|
G|-----------------2-(2)---------------|------------0---(0)--------------|
D|-------------------------2h==4---2---|--------------------0h=2-----0---|
A|-0-------0---/4----------------------|-----/2--------------------------|
E|-------------------------------------|-3-3-----------------------------|


   Q   +S   S S S  E  E  E  E   Q.      E  Q    E E
e|----------------------------|------------------------|
B|----------------------------|------------------------|
G|----------------------------|------------------------|
D|-9---(9)h10p9p7--9--7-(7)-7-|-7----------------------|
A|--------------------7h=9--9-|-7-------5--4----0------|
E|----------------------------|-------------------0----|
 |
 | E E  E     E   +E  E  E  E   E  E  E E +E  E E E
e|----------------------------|------------------------|
B|----------------------------|------------------------|
G|------------0---(0)---------|---------2-(2)----------|
D|--------------------0h=2--0-|---------------2h4-2----|
A|-----/2---------------------|-0--0-/4----------------|
E|-3-3------------------------|------------------------|


   Q=138       Q=138(8=s8)   Q=138 Q=138(8=s8)
                |-3--|              |-3--|     |------3------|
   +E  E E a E +E  E E E E   +E  E  Q    E  a  Q    Q   E    E
e|-------------------------|--------3---------------7----------|
B|-------------------------|-----3------(3)--------------------|
G|-------------------2-2-4-|-(4)------------4s=7--------7s==11-|
D|-----------------2-------|-----------------------------------|
A|-------0-2s4-(4)---------|-----------------------------------|
E|-(0)-2-------------------|-----------------------------------|
 |
 |  q    q      q      q      E  E  E E       +E  E   E   E
e|-------------------------|-----------------------------------|
B|--2----3------5------7---|-----------------------------------|
G|---------------------6---|----------0-------(0)--------------|
D|--2----4------5------7---|----------------------0h==2---0----|
A|-------------------------|-------/2--------------------------|
E|-------------------------|--3--3-----------------------------|


    ~~~~~
                          |---3----|
    E  E  Q    a  E   E  +E   E    E
e|-10-10------14s15--15-(15)------15-|
B|-----------------------------------|
G|---------------------------16------|
D|-----------------------------------|
A|-----------------------------------|
E|-----------------------------------|
 |
 |  E  E  E E    +E   E   E     E
e|-----------------------------------|
B|-----------------------------------|
G|----------0----(0)-----------------|
D|--------------------0h==2-----0----|
A|-------/2--------------------------|
E|--3--3-----------------------------|


    |---3---|  |---3---|
    E  E    E  E  E    E  S   S  S  S  S S S S
e|-15s14---14-14s12---12-12s=10-10-10-10s9-9-9-|
B|---------------------------------------------|
G|---------------------------------------------|
D|---------------------------------------------|
A|---------------------------------------------|
E|---------------------------------------------|
 |
 |  E    E     E    E    +E      E     E   E
e|---------------------------------------------|
B|---------------------------------------------|
G|------------------2----(2)-------------------|
D|-------------------------------2h====4---2---|
A|--0----0----/4-------------------------------|
E|---------------------------------------------|


                                                 ~~~
   S S S S  S S S S  S  S S S S S S S   S S S S +Q     S  S S S Q
e|-9s7-7-7--7s5-5-5--5s=3-3-3-3p0-0-0-|-3-3-------------------------|
B|------------------------------------|-----3-3-(3)---------3-3-----|
G|------------------------------------|----------------4--4---------|
D|------------------------------------|-------------------------5---|
A|------------------------------------|-----------------------------|
E|------------------------------------|-----------------------------|
 |
 | E   E    E   E   +E    E   E   E     E   E    E  E +E    E   E E
e|------------------------------------|-----------------------------|
B|------------------------------------|-----------------------------|
G|--------------2---(2)---------------|-------------0-(0)-----------|
D|------------------------2h==4---2---|---------------------0h==2-0-|
A|-0---0---/4-------------------------|---------/2------------------|
E|------------------------------------|-3---3-----------------------|


           Q=138      Q=138
   S S S S  E E  E  E E E
e|------------------------|
B|------------------------|
G|------------------------|
D|-----5-5------------5---|
A|-5-5------2-3--4--5---0-|
E|------------------------|
 |
 | E   E    E E +E  E E E
e|------------------------|
B|------------------------|
G|------------0-(0)-------|
D|------------------0h2-0-|
A|---------/2-------------|
E|-3---3------------------|


  (8=s8)
    |----3-----|    |---3----|
    Q   Q      Q    Q    Q   Q     W
e|-------------------------------|----------------------||
B|-------------------------------|----------------------||
G|------5b6----------------------|-2--------------------||
D|-/7----------------------------|-2--------------------||
A|-------------7----7----5s==4---|-0--------------------||
E|-------------------------------|----------------------||
 |
 |  E E      E   E +E  E   E   E   E E E E +E   E  E E
e|-------------------------------|-------5-(5)-(5)-5-5--||
B|-------------------------------|-----------------5-7--||
G|---------------2-(2)-----------|-------6-(6)--7----7--||
D|---------------------2h==4---2-|----------------------||
A|--0-0-----/4-------------------|-0-0------------------||
E|-------------------------------|----------------------||


[Verse 1,2,3]

    $
   $$
    ~~
    H          +E   E   Q       W
e|---------------------------|-------------------------|
B|---------------------------|-------------------------|
G|---------------------------|-------------------------|
D|---------------------------|-------------------------|
A|-12---------(12)-12\-------|-------------------------|
E|---------------------------|-------------------------|
 |
 |  E E  E  E  +E   E   E  E   +E   E  E E +E   E  E E
e|--5----5--5--(5)------5--5-|-(5)--5--5-5-(5)-(5)---5-|
B|--7----7--5--(5)------5--3-|-(3)--5--3-2-(2)--3--5-7-|
G|--7-7-(7)-6--(6)--6--(6)-4-|-(4)-(4)-4-2-(2)-(2)---7-|
D|---------------------------|-------------------------|
A|---------------------------|-------------------------|
E|---------------------------|-------------------------|


  +E  E  E  E +E  E  E  E   +E   E  E E +E   E  E E

e|-(5)----5--5-(5)----5--5-|-(5)--5--5-5-(5)-(5)---5-|
B|-(7)----7--5-(5)----5--3-|-(3)--5--3-2-(2)--5--7-8-|
G|-(7)-7-(7)-6-(6)-6-(6)-4-|-(4)-(4)-4-2-(2)-(2)---9-|
D|-------------------------|-------------------------|
A|-------------------------|-------------------------|
E|-------------------------|-------------------------|


   +E  E  E  E +E  E  E  E   +E  E  E  E +E  E E E
e|-(5)----5--5-(5)----5--5-|-(5)----5--5-(5)-----5-|
B|-(8)----8--7-(7)----7--6-|-(6)----6--5-(5)---5-7-|
G|-(9)-9-(9)-8-(8)-8-(8)-7-|-(7)-7-(7)-6-(6)-7---7-|
D|-------------------------|-----------------------|
A|-------------------------|-----------------------|
E|-------------------------|-----------------------|


                                      To Coda
                                      To Coda
                            2/4           4/4
   +E  E  E  E +E  E  E  E   +E   E  E E   W
e|-(5)----5--5-(5)----5--5-|-(5)--5--5-5-|-5-----||
B|-(7)----7--5-(5)----5--3-|-(3)--5--3-2-|-2-----||
G|-(7)-7-(7)-6-(6)-6-(6)-4-|-(4)-(4)-4-2-|-2-----||
D|-------------------------|-------------|-------||
A|-------------------------|-------------|-------||
E|-------------------------|-------------|-------||


[Chorus 1]

   E E E E Q  E E   E E E E Q  E E   E E  E E Q  a  E  E
e|----------------|----------------|---------------------|
B|----------------|----------------|-------------2h=3----|
G|---------0------|---------0------|----------2--2-(2)---|
D|------------2-0-|------------2-0-|-------------2h=4----|
A|-----2----------|-----2----------|-0-0-/4-4----------0-|
E|-3-3---3--------|-3-3---3--------|---------------------|


   E E a  E  E E E a  E  E    E E E E Q  E E   E E E E Q  E E
e|--------------------------|----------------|----------------|
B|-2---2h=3----2---2h=3p=2--|----------------|----------------|
G|-2---2-(2)---2---2-(2)(2)-|---------0------|---------0------|
D|-2---2h=4----2---2h=4p=2--|------------2-0-|------------2-0-|
A|---0-------0---0----------|-----2----------|-----2----------|
E|--------------------------|-3-3---3--------|-3-3---3--------|


                                             Guitar 1
   W                    W            H        E  E  E  E
e|--------------------|------------|---------19-19p15-15-|
B|--------------------|------------|---------------------|
G|--------------------|------------|---------------------|
D|--------------------|------------|---------------------|
A|--------------------|------------|---------------------|
E|--------------------|------------|---------------------|
 |
 | Guitar 2
 | E E  E E E E  E  E   H.      Q    E E E E  Q     E  E
e|--------------------|------------|---------------------|
B|------------2h=3----|-2----------|---------------------|
G|----------2-2-(2)---|-2----------|----------0----------|
D|------------2h=4----|-2----------|----------------2--0-|
A|-0-0-/4-4---------0-|-0----------|-----2---------------|
E|--------------------|------------|-3-3---3-------------|


    ~~~
                                     |-----3-----|
    H.           +Q       H          Q  Q        Q
e|----------------------|----------/14-14s======12---|
B|----------------------|----------/14-14s======12---|
G|-16-----------(16)\---|----------------------------|
D|----------------------|----------------------------|
A|----------------------|----------------------------|
E|----------------------|----------------------------|
 |
 |  E  E E E Q    E   E   E E  E E   Q    a  E     E
e|----------------------|----------------------------|
B|----------------------|-----------------2h=3-------|
G|-----------0----------|------------2----2-(2)------|
D|----------------2---0-|-----------------2h=4-------|
A|-------2--------------|-0-0-/4-4-----------------0-|
E|--3--3---3------------|----------------------------|


    H            +Q        Q
e|-12-----------(12)\------------|
B|-------------------------------|
G|-------------------------------|
D|-------------------------------|
A|-------------------------------|
E|-------------------------------|
 |
 |  E E a  E  E   E   E a  E  E
e|-------------------------------|
B|--2---2h=3------2-----2h=3p=2--|
G|--2---2-(2)-----2-----2-(2)(2)-|
D|--2---2h=4------2-----2h=4p=2--|
A|----0-------0-------0----------|
E|-------------------------------|


             |----3-----|
   H         Q  a  Q    Q       H.           +Q
e|---------/12--------------|--10-----------(10)\---|
B|---------/12-10s12s==10---|-(10)----------(10)\---|
G|--------------------------|-----------------------|
D|--------------------------|-----------------------|
A|--------------------------|-----------------------|
E|--------------------------|-----------------------|
 |
 | E E E E   Q       E    E     E  E E E Q    E   E
e|--------------------------|-----------------------|
B|--------------------------|-----------------------|
G|-----------0--------------|------------0----------|
D|-------------------2----0-|-----------------2---0-|
A|-----2--------------------|--------2--------------|
E|-3-3---3------------------|---3--3---3------------|


                                                      D.S. al Coda
                                                         ~~~
      |---3---|  |--3--|  |--3--|    |--3--|  |---3---|
   Q  E  E    E  E  E  E  E  E  E    E  E  E  E  E    E  H
e|-----------14-------------------|---------------------------------||
B|------17------14-17----14-------|---------------------------------||
G|--------------------17----14-16-|----14---------------------------||
D|--------------------------------|-16----16-14---------------------||
A|--------------------------------|-------------15---16-12----------||
E|--------------------------------|---------------------------------||
 |
 |                        |--3--|
 | Q  E    E     Q        E  E  E    Q        E    E    +E  E E E
e|----2-------------------2--2--x-|-----------2----5----(5)-5-5-5---||
B|----2-------------------2--2--x-|-----------2---------------5-7---||
G|--------------------------------|----------------6----(6)-7---7---||
D|--------------------------------|---------------------------------||
A|--------------------------------|---------------------------------||
E|-2-------------2----------------|--2------------------------------||


[Chorus 2]

   &
   E E  E E E E a E E   E E  E E Q  E E   E E E E E E E E   E E E E E E E E
e|--------------------|-----------------|-----------------|-----------------|
B|--------------------|-----------------|-----2---2-2-----|-----------------|
G|----------0-0-----0-|--------0-0------|-----2---2-2-4-2-|-----4-2-----4-2-|
D|--------0-----3p2-0-|-----------------|-----4-2-2-2-4-2-|---2-4-2-----4-2-|
A|-----/2-------------|-----/2------2-2-|-0-0-----0-0---0-|-0-0-----0-0-----|
E|-3-3----------------|-3-3-------------|-----------------|-----------------|


   Q   E E E E E E   E E E E E E e e   Q  E E +E  E  E  E    W
e|-----------------|-----------------|---------------------|------|
B|-----------------|-----------------|------2-(2)-2-(2)(2)-|-2----|
G|---------0-0---0-|-------0---------|----4-2-(2)-2-(2)(2)-|-2----|
D|-------0-----2-0-|---0---0---0-----|----4-2-(2)-2h=4p=2--|-2----|
A|----/2-----------|-----4-------2-2-|-0-------------------|-0----|
E|-3---------------|-3-------3-------|---------------------|------|


   Guitar 1
                                 ~~~
   H         E  E  E  E   E  E  +H          +Q
e|--------------3--3----|----7--(7)---------(7)\---|
B|----------------------|--------------------------|
G|----------/4-(4)----5s|=7-(7)-(7)---------(7)\---|
D|----------------------|--------------------------|
A|----------------------|--------------------------|
E|----------------------|--------------------------|
 |
 | Guitar 2
 |                                    |-3-|
 | E E  E E  E  E  E  E   E  E   E  E E E E  E   E
e|----------------------|--------------------------|
B|----------------------|--------------------------|
G|-----------0--0-(0)---|-----------0-0-0-0--------|
D|--------0-----0h=2--0-|--------------------2---0-|
A|-----/2---------------|-------/2-----------------|
E|-3-3------------------|-3--3---------------------|


   H         E  E  E     E     Q    H        +Q
e|--------------5--5---------|------9--------(9)\---|
B|---------------------------|----------------------|
G|----------/6-(6)-------7s==|=9---(9)-------(9)\---|
D|---------------------------|----------------------|
A|---------------------------|----------------------|
E|---------------------------|----------------------|
 |
 |                 |---3---|
 | E E  E E  E  E  E  E    E   E E  E  E E E  E   E
e|---------------------------|----------------------|
B|-----------------2h=3----3-|----------------------|
G|--------4--2--2--2-(2)---2-|------4--2------4---2-|
D|--------4--2--2--2h=4----2-|------4--2------4---2-|
A|-0-0-/4--------------------|-0-0-------0-0--------|
E|---------------------------|----------------------|


               |--3---|         |--3--|
   Q   a  E E +E  E   E   Q     E E   E +H.
e|----------3-(3)---------3---|-------3-(3)-------------|
B|----------------------------|-------------------------|
G|-----2s=4-------3s==4-------|-3s4---------------------|
D|----------------------------|-------------------------|
A|----------------------------|-------------------------|
E|----------------------------|-------------------------|
 |
 | E E    E E  E    E   a E E   E   E    E  E E E a E E
e|----------------------------|-------------------------|
B|----------------------------|-------------------------|
G|----------0--0----------0-0-|-------------0-0-----0-0-|
D|------------------0---0h2-0-|-----------------0-0h2-0-|
A|-------/2-------------------|---------/2--------------|
E|-3-3------------------------|-3---3-------------------|


                                  |-3-|
   W                H        Q    E E E
e|----------------|---------------------||
B|----------------|---------------------||
G|----------------|---------------------||
D|----------------|-----------------2-4-||
A|----------------|---------------------||
E|----------------|---------------------||
 |
 | Q  E E E E E E   E E E E +E  E Q
e|----------------|---------------------||
B|----------------|---2---2-(2)-2-------||
G|----------------|---2---2-(2)-2-------||
D|----4-4-4-4-4-4-|---4---4-(4)---4-----||
A|----4-4-4-4-4-4-|-----4---------4-----||
E|-2--2-2-2-2-2-2-|-2---2---------2-----||


[Interlude]

     Guitar 2
                  |--3--|             |-3-|         |-3-|
     E E  E    E   E E   E  E    E     E E E E   E   E E E E   E
     | |  |    |   | |   |  |    |     | | | |   |   | | | |   |
     o /  /    /   / o   o  /    /     / / / /   /   / / / /   /

     Guitar 1
          |--3---|          |--3---|   |-3-| |--3--| |-3-| |--3--|
     e E +E  E   E e   E   +E  E   E   E E E E E   E E E E E E   E
e||----------------------------------|-----------------------------|
B||o---------------------------------|-----------------------------|
G||--0-0-(0)-------0---0---(0)-------|-0-2-4-2p0---------0-2p0-----|
D||----------2---4-------------2---4-|-------------4-2-4---------4-|
A||o---------------------------------|-----------------------------|
E||----------------------------------|-----------------------------|


   |--3--|           |--3--|
   E E   E  E    E   E E   E  E    E
   | |   |  |    |   | |   |  |    |
   / o   /  /    /   o o   /  /    /

            |--3---|          |--3---|
   E   E   +E  E   E e   E   +E  E   E
e|----------------------------------------|
B|----------------------------------------|
G|-2---2---(2)-------2---2---(2)-----2----|
D|-------------2---4-------------4--------|
A|----------------------------------------|
E|----------------------------------------|


   1.                            2.
   |-3-|         |-3-| |-3-|     |---3---| |---3---| |---3---| |---3---|
   E E E E   E   E E E E E E     E   E   E E   E   E E   E   E E   E   E
   | | | |   |   | | | | | |     |   |   | |   |   | |   |   | |   |   |
   o o / /   /   o o / / / /     o   o   / /   /   / o   o   / /   /   /

   |-3-| |--3--| |-3-| |-3-|     |-3-|     |-3-|     |-3-|     |-3-|
   E E E E E   E E E E E E E     S S S E   S S S E   S S S E   S S S E
e|----------------------------||-----------------------------------------||
B|-3p2---5p0-----3p2---5p0---o||-3p2p0-----5p2p0-----3p2p0-----5p2p0-----||
G|-----2-------2-----2-----2--||-------2---------2---------2---------2---||
D|----------------------------||-----------------------------------------||
A|---------------------------o||-----------------------------------------||
E|----------------------------||-----------------------------------------||


     Guitar 2
                   |--3--|             |-3-|         |-3-|
     E E  E    E   E E   E  E    E     E E E E   E   E E E E   E
     | |  |    |   | |   |  |    |     | | | |   |   | | | |   |
     o /  /    /   / o   o  /    /     / / / /   /   / / / /   /

     Guitar 1
          |--3---|          |--3---|   |-3-| |--3--| |-3-| |--3--|
     e E +E  E   E e   E   +E  E   E   E E E E E   E E E E E E   E
e||----------------------------------|-----------------------------|
B||o---------------------------------|-----------------------------|
G||--0-0-(0)-------0---0---(0)-------|-0-2-4-2p0---------0-2p0-----|
D||----------2---4-------------2---4-|-------------4-2-4---------4-|
A||o---------------------------------|-----------------------------|
E||----------------------------------|-----------------------------|
 |
 |   Guitar 2
 |        |--3---|          |--3---|   |-3-| |--3--| |-3-| |--3--|
 |   e E +E  E   E e   E   +E  E   E   E E E E E   E E E E E E   E
e||----------------------------------|-----------------------------|
B||o-0-0-(0)-------0---0---(0)-------|-0-2-3-2p0---------0-2p0-----|
G||----------0---2-------------0---2-|-------------2-0-2---------2-|
D||----------------------------------|-----------------------------|
A||o---------------------------------|-----------------------------|
E||----------------------------------|-----------------------------|


   |--3--|           |--3--|             |-3-|         |-3-| |-3-|
   E E   E  E    E   E E   E  E    E     E E E E   E   E E E E E E
   | |   |  |    |   | |   |  |    |     | | | |   |   | | | | | |
   / o   /  /    /   o o   /  /    /     o o / /   /   o o / / / /

            |--3---|          |--3---|   |-3-| |--3--| |-3-| |-3-|
   e   E   +E  E   E e   E   +E  E   E   E E E E E   E E E E E E E
e|-------------------------------------|-------------------------------||
B|-------------------------------------|-3p2---5p0-----3p2---5p0------o||
G|-2---2---(2)-------2---2---(2)-------|-----2-------2-----2-----2-----||
D|-------------2h==4-------------4---2-|-------------------------------||
A|-------------------------------------|------------------------------o||
E|-------------------------------------|-------------------------------||
 |
 |          |--3---|          |--3---|   |-3-| |--3--| |-3-| |-3-|
 | e   E   +E  E   E e   E   +E  E   E   E E E E E   E E E E E E E
e|-------------------------------------|-2p0---5p0-----2p0---5p0-------||
B|-2---2---(2)-----0-2---2---(2)-----0-|-----2-------2-----2-----2----o||
G|-------------2-----------------2-----|-------------------------------||
D|-------------------------------------|-------------------------------||
A|-------------------------------------|------------------------------o||
E|-------------------------------------|-------------------------------||


[Guitar Solo]

  G
  E E E E  E   E      E E     E  E E E   E     E      E   E
  | | | |  |   |      | |     |  | | |   |     |      |   |
  / / x /  /   /      x /     /  / x /   /     /      x   /

                               ~~~~
                                          |---3---|    |--3---|
   H        E  +Q.            +H         +E   E   E    E E   +E
e|---------14-(14)b15======|=(14)-------(14)r-----9b10---7---(7)b9-|
B|-------------------------|---------------------------------------|
G|-------------------------|---------------------------------------|
D|-------------------------|---------------------------------------|
A|-------------------------|---------------------------------------|
E|-------------------------|---------------------------------------|


   A
   E E   E E E E   E     E   E E E   E   E E E E
   | |   | | | |   |     |   | | |   |   | | | |
   / /   x / / /   x     /   / / x   /   / / x /

             |---3---|           |--3--|
   E S S E E Q   Q   Q       Q   E E   E Q   E E
e|-5-----------------------|-----------------------|
B|---5h6h7-5-5h==7---------|-----------------------|
G|-------------------5b6---|-----------------------|
D|-------------------------|-----------7-7---7-----|
A|-------------------------|-7---7s9-----------0---|
E|-------------------------|-----------------------|


   G
   E   E    E    E   E E E   E
   |   |    |    |   | | |   |
   /   /    x    /   / / x   /

   |--3--|  |--3---|
   E E   E +E  E   E Q   S S S S
e|-------------------------------|
B|-------------------------------|
G|-------------------------------|
D|-9p7---9-(9)-9p==7-9---9p8p7-8-|
A|-------------------------------|
E|-------------------------------|


                                           A
   E     E   E     E   E   E   E    E       E E  E  E  E E     E E
   |     |   |     |   |   |   |    |       | |  |  |  | |     | |
   /     /   x     /   /   /   x    /       / /  x  /  / /     x /

   |---5---| |---5---|
   S S E   S S S E   S S S S S S S  S  S    Q    E  E  E E  a  E E
e|---------------------------------------|-------------------------|
B|---------------------------------------|-------------------------|
G|---------------------------------------|-------------------------|
D|-9-8-7---8-9-8-7---8-9-8-7-8-9-9h10h11-|-11---11p10-11---11s12---|
A|---------------------------------------|---------------0-------0-|
E|---------------------------------------|-------------------------|


                                        G                   G
    E E     E E   E E  E  E     E     E  E  E      E      E  E    E
    | |     | |   | |  |  |     |     |  |  |      |      |  |    |
    / /     x /   / /  x  /     o     /  /  x      o      /  /    o

                                |-3-|                        |---3---|
    E E  a  Q     E E  E  E    +E   Q    E  S  S  +S   E.    E  E    E
e|--------------------------|------------------------------------------|
B|--------------------------|------------------------------------------|
G|--------------/12---14-12-|-(12)-14---12-12h14-(14)p12----12h14p==12-|
D|-13---13s14---------------|------------------------------------------|
A|----0-----0-------0-------|------------------------------------------|
E|------------------0-------|------------------------------------------|


              G             A         C
                    |--------3--------|
     E   E     E E  Q       Q         Q
     |   |     | |  |       |         |
     /   /     / x  /       /         /
 
    +E   S  S  Q    S  S  S   S  S  S    S  S
e|----------------------------------------------|
B|----------------------------------------------|
G|-(12)-12h14p12---12h14p12---0-12h14p==12-12---|
D|----------------------------------------------|
A|----------------------------------------------|
E|----------------------------------------------|


   A
    E     E     E     E     E     E    E     E
    |     |     |     |     |     |    |     |
    /     /     /     x     /     /    /     x

    S  S  S  S  S  S  S  S  S  S  S s  S  S  S  S
e|-------------------------------------------------|
B|-------------------------------------------------|
G|-12h14p12-12-12h14p12-12-12h14p12-0-11h12p11-11\-|
D|-------------------------------------------------|
A|-------------------------------------------------|
E|-------------------------------------------------|


                        C A   G
                    |--3--|
   E    E   E   E   Q   Q Q   E   E   E   E E E   E   E
   |    |   |   |   |   | |   |   |   |   | | |   |   |
   /    /   /   x   /   / /   /   /   /   x / /   /   x

                    |--3--|   |----3----|   |---3---|
   S  S S S S S S S Q   Q Q   Q     Q   Q   Q   Q   Q
e|--------------------------|---------------------------|
B|--------------------------|---------------7-----------|
G|-9h11p9-9-7h9p7-7-5b6-----|-5b6-----------7-----------|
D|----------------------7-7-|-------7---7-------7---7---|
A|--------------------------|---------------------------|
E|--------------------------|---------------------------|


                                   D.S.S. al Dbl. Coda
                A C     A
              |-3-|
  E E   E   E Q Q Q     W          +Q   Q    H
  | |   |   | | | |     |           |
  / /   x   / / / /     /           /

                                          Gtrs I, II
                         ~
   |---3---|   |--3--|
   Q   Q   Q   Q Q E E   W          +Q   E E +E   E  E E
e|-------------5-5-----|-5--------|-(5)----5-(5)-(5)-5-5-||
B|-------------5-5-5h8-|----------|------------------5-7-||
G|-8-------------------|----------|--------6-(6)--7----7-||
D|-----7---7-----------|----------|----------------------||
A|---------------------|----------|----------------------||
E|---------------------|----------|----------------------||

  &&
   Guitar 1
        |--3--|   |------3-------|
   E E  E E   E   Q    Q    E    E    H..               +E
e|---------------------------------|-------------------------|
B|--------------------10---10s==12s|=10----------------(10)\-|
G|---x----x---x-/11----------------|-------------------------|
D|---x----x---x--------7----7s===9s|==7-----------------(7)\-|
A|---x----x---x--/9----------------|-------------------------|
E|---------------------------------|-------------------------|
 |
 | Guitar 2
 | E E  E   E     E E    E    E       E   E E E  E E E   E
e|---------------------------------|-------------------------|
B|---------------------------------|-------------------------|
G|----------------0-0--------------|---------------0h2-------|
D|----------2------------2---------|-------------------------|
A|-----/2---------------------0----|--------2---/2-------0---|
E|-3-3-----------------------------|--3---3---3--------------|


           |-------3--------|
   H       Q     Q     E    E    H.            +Q
e|---------------0------------|-----------------------|
B|---------5-----0------------|-----------------------|
G|---------9-----9-----9s==11s|==9-------------(9)\---|
D|----------------------------|-----------------------|
A|----------------------------|-----------------------|
E|----------------------------|-----------------------|
 |
 | E E E E E  E     E    E      +E  E E E +Q    E   E
e|----------------------------|-----------------------|
B|----------------------------|-----------------------|
G|---------2--4s====6----2----|-(2)-----2-(2)---4---2-|
D|-----x-2-2--2s====4---------|-------4-2-(2)---4---2-|
A|-0-0-x-0-0-(0)---(0)--------|-----0---0-(0)---------|
E|----------------------------|-----------------------|


             |--3---|    |---3----|
   H         E  E   E   +E   E    E    W
e|----------15-15-(15)-(15)-15s==17-|---------------------|
B|----------------------------------|---------------------|
G|----------12-12-(12)-(12)-12s==14s|=12------------------|
D|-----------------12--(12)---------|---------------------|
A|----------------------------------|---------------------|
E|----------------------------------|---------------------|
 |
 |           |--3---|                           |-3-|
 | E E  E E  E  E   E    E     E       E E  E E E E E E E
e|----------------------------------|---------------------|
B|----------------------------------|---------------------|
G|-----------0--0---0---------------|-----------0-0-0---0-|
D|--------2-------------/2----------|--0-0------------2---|
A|-----/2---------------------------|------/2-0-----------|
E|-3-3-------------------------3----|--3-3----------------|


                                                 ~~~
        |----3----|  |--3--| |--3--|   |3|
   Q    E   E     E  E   E E E E   E   E Q S E. +H
e|---------12-----------10-----9-----|---7---5--(5)----|
B|-----------------------------------|-----------------|
G|-0---------------------------------|-----0-----------|
D|-----------------------------------|-----------------|
A|-----------------------------------|-----------------|
E|-----------------------------------|-----------------|
 |
 |                   |-3-|
 | E E  E      E    +E   Q   E   E     W
e|-----------------------------------|-----------------|
B|-------------2----(2)--2---3p==2---|-2---------------|
G|-2-2h=4------2----(2)--2---2---2---|-2---------------|
D|-2-2h=4------2----(2)--2---4p==2---|-2---------------|
A|-0-0-(0)----(0)---(0)--------------|-0---------------|
E|-----------------------------------|-----------------|


   |--3---|  |---3---| |--3---| |--3--|
   S E.   E  S  E.   E S E.   E E E   E
e|---7----------------------------------|
B|-7-----------10--------8--------------|
G|-----------0---------0--------7s9---9-|
D|--------0----------0------------------|
A|----------------------------5-5s7---7-|
E|--------------------------------------|
 |
 | E    E    E     E   E    E   E   E
e|--------------------------------------|
B|--------------------------------------|
G|---------------------0----0-----------|
D|-----------------2------------2-------|
A|----------/2----------------------0---|
E|-3----3-------------------------------|


   |--3---|             |--3--|
   S E.   E S E.    E E E E   E   Q   a E E E  E  a  E  E
e|----------------------5-------|---------5-5--5----------|
B|------------------------------|-----5s7---------5s=7--5-|
G|---7--------6---------------0-|-7-----------------------|
D|------------------9s7---------|-7-----------------------|
A|-5------x-4-------------------|-------------------------|
E|------------------7s5---------|-------------------------|
 |
 | E    E   E    E  E E E   E     E E   E E E  E     E  E
e|------------------------------|-------------------------|
B|------------------------------|-------------------------|
G|--------------------0h2-------|-----------2--4s====6--2-|
D|------------------------------|-------x-2-2--2s====4----|
A|----------2------/2-------0---|-0-0---x-0-0-(0)---(0)---|
E|-3----3--------3--------------|-------------------------|


   a  E  E E E  E  E a E E   E E a  E E a E   E    E E
e|-------5-5-5-----------5-|-5-5--------------5----5---|
B|-5s=7---------7--5-5s7---|-----5s=7-5-5s7----------7-|
G|-------------------------|---------------------------|
D|-------------------------|---------------------------|
A|-------------------------|---------------------------|
E|-------------------------|---------------------------|
 |
 |                                        |--3--|
 |   +E  E E E +Q      E E   E E    E E   E E   E  E E
e|-------------------------|---------------------------|
B|-------------------------|---------------------------|
G|---(2)-----2-(2)-----4-2-|--------------0-0---0------|
D|---------4-2-(2)-----4-2-|----------2-----------/2---|
A|-------0---0-(0)---------|-------/2------------------|
E|-------------------------|-3-3---------------------3-|


        |--3--|           |--3--|
   E E  E E   E E   E   a E E   E
e|------------5-5---5---5h7p5-------|
B|-5-5--5h7---------------------7---|
G|---4------------------------------|
D|----------------------------------|
A|----------------------------------|
E|----------------------------------|
 |
 |              |--3--|
 | E E  E   E   E E   E   E   E
e|----------------------------------|
B|----------------------------------|
G|--------------0-0---0-------0-----|
D|-0-0--------------------2---------|
A|-----/2---0-----------------------|
E|-3-3------------------------------|


                   |3|     |3|               |-3-|
   a E E Q     Q   E Q     E Q   +Q    +E  E E E E
e|-----------------------|-------------------------||
B|-5s7-------------------|-------------------------||
G|-----6-4b5---2---------|---------------------0-2-||
D|-----------------4-2---|-2h4---(4)---(4)---------||
A|-----------------------|-------------------------||
E|-----------------------|-------------------------||
 |
 |                                           |-3-|
 |   E E E   E E E E   E   E   E  E  E  E  E E E E
e|-----------------------|-------------------------||
B|---2-2-2---2-2-2-2---2-|-2---2--2--2--2--2-------||
G|---2-2-2---2-2-2-2---2-|-2---2--2--2--2--2---0---||
D|---4-4-4---4-4-4-4---4-|-4---4--4--4--4--4-----4-||
A|---4-4-4---4-4-4-4---4-|-4---4--4--4--4--4-------||
E|---2-2-2---2-2-2-2---2-|-2---2--2--2--2--2-------||


    Guitar 2
                  |--3--|             |-3-|         |-3-|
    E E  E    E   E E   E  E    E     E E E E   E   E E E E   E
    | |  |    |   | |   |  |    |     | | | |   |   | | | |   |
    o /  /    /   / o   o  /    /     / / / /   /   / / / /   /

          |--3---|          |--3---|   |-3-| |--3--| |-3-| |--3--|
     e E +E  E   E e   E   +E  E   E   E E E E E   E E E E E E   E
e||----------------------------------|-----------------------------|
B||o-0-0-(0)-------0---0---(0)-------|-0-2-3-3p0---------0-2p0-----|
G||----------0---2-------------0---2-|-------------2-0-2---------2-|
D||----------------------------------|-----------------------------|
A||o---------------------------------|-----------------------------|
E||----------------------------------|-----------------------------|
 |
 |        |--3---|          |--3---|   |-3-| |--3--| |-3-| |--3--|
 |   e E +E  E   E e   E   +E  E   E   E E E E E   E E E E E E   E
e||----------------------------------|-----------------------------|
B||o---------------------------------|-----------------------------|
G||--0-0-(0)-------0---0---(0)-------|-0-2-4-2p0---------0-2p0-----|
D||----------2---4-------------2---4-|-------------4-2-4---------4-|
A||o---------------------------------|-----------------------------|
E||----------------------------------|-----------------------------|


  |--3--|           |--3--|
  E E   E  E    E   E E   E  E    E
  | |   |  |    |   | |   |  |    |
  / o   /  /    /   o o   /  /    /

            |--3---|          |--3---|
   e   E   +E  E   E e   E   +E  E   E
e|----------------------------------------|
B|-2---2---(2)-----0-2---2---(2)-----0----|
G|-------------2-----------------2--------|
D|----------------------------------------|
A|----------------------------------------|
E|----------------------------------------|
 |
 |          |--3---|          |--3---|
 | e   E   +E  E   E e   E   +E  E   E
e|----------------------------------------|
B|----------------------------------------|
G|-2---2---(2)-------2---2---(2)----------|
D|-------------2---4-------------4---0----|
A|----------------------------------------|
E|----------------------------------------|


  1.
  |---3---|           |---3---| |---3---|
  E   E   E E     E   E   E   E E   E   E
  |   |   | |     |   |   |   | |   |   |
  o   o   / /     /   o   o   / /   /   /

   |---3---| |---3---| |---3---| |-3-|
   E   E   E E   E   E E   E   E S S S E
e|-2p==0-----5p==2-----2p==0-----9p7p0------||
B|---------2-------------------2-------7---o||
G|-------------------2----------------------||
D|------------------------------------------||
A|-----------------------------------------o||
E|------------------------------------------||
 |
 | |-3-|     |---6---| |-3-|     |-3-|
 | S S S E   S S S S E S S S E   S S S E
e|-------------------------------5p2p0------||
B|-3p2p0-----5p2p0-0---3p2p0---------------o||
G|-------2-----------2-------2---------2----||
D|------------------------------------------||
A|-----------------------------------------o||
E|------------------------------------------||


                            Outro gtr. solo
  2.
  |-3-| |-3-| |-3-| |-3-|
  E E E E E E E E E E E E    W
  | | | | | | | | | | | |
  o o / / / / o o / / / /

   |-3-| |-3-| |-3-| |-3-|
   E E E E E E E E E E E E    Q    E   E   E  E E E
e|-2p0---5p0---2p0---5p0-2-||-----------------5-5----|
B|-----2-----2-----2-------||----------0--/7------7--|
G|-------------------------||----------0-------------|
D|-------------------------||------------------------|
A|-------------------------||------------------------|
E|-------------------------||------------------------|
 |
 | |-3-| |-3-| |-3-| |-3-|
 | E E E E E E E E E E E E    E E  E   E   E  E E E
e|-------------------------||------------------------|
B|-3p2---5p0---3p2---5p0-2-||----------0--(0)-----0--|
G|-----2-----2-----2-------||----------0--(0)-----0--|
D|-------------------------||---0-(0)-(0)-(0)-0-2-0--|
A|-------------------------||---1s=2-----------------|
E|-------------------------||-3------------3---------|


    E  E  E E  E  E  Q       a E E E   E    Q     E E
e|----------5--5-----------|-----5-5----------------5-|
B|-----0-/7-------7--------|-5s7-------7---------/7---|
G|------------------(7)\---|--------------------------|
D|-------------------------|--------------------------|
A|-------------------------|--------------------------|
E|-------------------------|--------------------------|
 |
 |                                 |--3--|
 | +Q     E E +E  E  E   E     Q   E E   E +E  E  Q
e|-------------------------|--------------------------|
B|-(0)---------------------|--------------------------|
G|-(0)------0-(0)----------|-------------2-(2)-2--4---|
D|-(0)------0-(0)-0--2-----|-------------2-(2)-2--4---|
A|-------/2--------------0-|---0---3h4----------------|
E|-------------------------|--------------------------|


   E E    e   E   E E E   E
e|-5---/(17)--------5-5-------|
B|---7-----------/7-------7---|
G|-----------(0)--------------|
D|-----------(0)--------------|
A|----------------------------|
E|----------------------------|
 |
 |                    |--3--|
 | E E    E   E   E E E E   E
e|----------------------------|
B|----------------------------|
G|-2-2----4---2---2-2-4p2-----|
D|-2-2----4---2---2-2-4p2---4-|
A|-0--------------0-----------|
E|----------------------------|
  H              H


         |---3----|  |--3---| |--3--|    |--3---|  |--3--|  |--3---|
   E  E  E  S  S  E  E  S S E E S S E    E  S S E  E S S E  E  S S E S S S S
e|-7p(5)-7h=8p=7p=5--7h=8p7p5-7h8p7p5-|--7h=8p7p5--7h8p7p5--7h=8p7p5-7h8p7p5-|
B|------------------------------------|--------------------------------------|
G|------------------------------------|--------------------------------------|
D|------------------------------------|--------------------------------------|
A|------------------------------------|--------------------------------------|
E|------------------------------------|--------------------------------------|
 |
 | E  E  E     E     E    E   E   E     +Q         E   E   +E    E   E   E
e|------------------------------------|--------------------------------------|
B|-------------0----(0)-----------0---|-(0)----------------------------------|
G|-------------0----(0)-----------0---|-(0)------------0---(0)---------------|
D|----0-(0)---(0)---(0)---0---2---0---|-(0)------------0---(0)---0---2-------|
A|----1s=2----------------------------|-----------/2---------------------0---|
E|-3-----------------3----------------|--------------------------------------|


   |---6---| |-------8-------|  |---6----|  |----6-----|
   S S S S E S S S   E S   S S  S  S S S E +S  S S S S S
e|-------------------7h8p==7p5-------------------7h8p7p5-|
B|-7h8p7p5----------------------7h=8p7p5-----------------|
G|---------7h8p7p5-----------------------7-(7)p5---------|
D|-------------------------------------------------------|
A|-------------------------------------------------------|
E|-------------------------------------------------------|
 |
 |           |-----3-----|
 | Q         E     E     E     +E      E    Q
e|-------------------------------------------------------|
B|-------------------------------------------------------|
G|-----------------------2-----(2)-----2----4------------|
D|-----------------------2-----(2)-----2----4------------|
A|-0---------3-----4-------------------------------------|
E|-------------------------------------------------------|


   |-----5-----|  |-3--|
   S S S     S S  S  S S  e  E  E   E      E
e|------------------------------------------------|
B|-7h8p7p====5------------------------------------|
G|-------------7h=8p=7p5--------------------------|
D|------------------------7--7--7---7------5------|
A|------------------------------------------------|
E|------------------------------------------------|
 |
 |                                  |----3----|
 | E      E       E       E  E  E   E   E     E
e|------------------------------------------------|
B|------------------------------------------------|
G|-2------2-------4-------2--2--2---4p==2---------|
D|-2------2-------4-------2--2--2---4p==2-----4---|
A|-0-----(0)-----(0)-----(0)-0-(0)-(0)-(0)---(0)--|
E|------------------------------------------------|


   |--3--|  |---3----|  |--3---|        |3-|  |3-|
   E E   E  E  E     E +E  E   E E E   +E  Q +E  Q   +T  E.   T +S  E.
e|-----------------------------------|-------------------------------------|
B|-----------------------------------|-------------------------------------|
G|---7---8--7p=6-----7-(7)-7p==6-7-7-|-(7)-6-(6)-7---(7)-7----6-(6)-7b9====|
D|-----------------------------------|-------------------------------------|
A|-----------------------------------|-------------------------------------|
E|-----------------------------------|-------------------------------------|
 |
 | E   E    E     E     E    E   E E   +Q     E    E +E     E    E       E
e|-----------------------------------|-------------------------------------|
B|----------------0----(0)---------0-|-(0)---------------------------------|
G|----------------0----(0)---------0-|-(0)---------0-(0)-------------------|
D|-----0---(0)---(0)---(0)---0---2-0-|-(0)---------0-(0)----0----2---------|
A|-----1s===2------------------------|-------/2--------------------------0-|
E|-3--------------------3------------|-------------------------------------|


   +E   E E   E      E  E E   E   E  E    E   E  E    E   E      E
e|--------5-------------5-------|-5-----------5-----------5--------------|
B|------5-5----------5--5-----5-|-5-------5---5-------5--(5)-------------|
G|-(7)r-------7b9---------7b9---|----7b9---------7b9-------------7b9-----|
D|------------------------------|----------------------------------------|
A|------------------------------|----------------------------------------|
E|------------------------------|----------------------------------------|
 |
 |        |---3---|                                       |-----3-----|
 |  Q     E E     E +E  E Q       E  E    E   E  E    E   E   E       E
e|------------------------------|----------------------------------------|
B|------------------------------|----------------------------------------|
G|----------------2-(2)-2-4-----|-2--2----4---2--2----2---4p==2----------|
D|----------------2-(2)-2-4-----|-2--2----4---2--2----2---4p==2-------4--|
A|--0-----3-4-------------------|-0-(0)--(0)-(0)-0---(0)-(0)-(0)-----(0)-|
E|------------------------------|----------------------------------------|


   |---3---|    |----3-----|    |---3----|   |---3---|
   E  E    E    E   E      E    E   E    E   E  E    E
e|----5-------------5---------------5-----------5------|
B|-5-(5)--------5--(5)----------5--(5)-------5-(5)---5-|
G|---------7b9-------------7b9-----------7b9-----------|
D|-----------------------------------------------------|
A|-----------------------------------------------------|
E|-----------------------------------------------------|
 |
 | E     E      E       E       E      E     E     E
e|-----------------------------------------------------|
B|----------------------0------(0)-----------------0---|
G|----------------------0------(0)-----------------0---|
D|-------0-----(0)-----(0)-----(0)-----0-----2-----0---|
A|-------1s=====2--------------------------------------|
E|-3----------------------------3----------------------|


    |--3--|  |--3--|    |--3---|
    E   E E  E E   E    E  E   E S S S S
e|------5-5--5-5--------5--5---7-8p5------|
B|------5-5--5-5--------5--5---7-----8-5--|
G|--7b9------------7b9--------------------|
D|----------------------------------------|
A|----------------------------------------|
E|----------------------------------------|
 |
 | +Q        E   E     +E    E   E   E
e|----------------------------------------|
B|-(0)------------------------------------|
G|-(0)-----------0-----(0)----------------|
D|-(0)-----------0-----(0)---0---2--------|
A|----------/2-----------------------0----|
E|----------------------------------------|


                                 |--3--|
   S S S S S S   S   S  S  S S S E E S S
e|-5-------------------------------------|
B|---8p5---------------------------------|
G|---------8p7p==5------7--5-----5-------|
D|-------------------7-------7-5---7p5---|
A|-------------------------------------7-|
E|---------------------------------------|
 |
 |         |---3---|
 | Q       E   E   E   +E    E   Q
e|---------------------------------------|
B|---------------------------------------|
G|-----------------2---(2)---2---4-------|
D|-----------------2---(2)---2---4-------|
A|-0-------3---4-------------------------|
E|---------------------------------------|


   |----3----|  |---3----| |---3---|  |---3---|
   E E     S S  E  E     E E E     E  E   E   E
e|------------------------------------------------|
B|------------------------------------------------|
G|------------------------------------------------|
D|-7-5----------5---------------------------------|
A|---------7-5-----7-----5-7-5-----3--------------|
E|------------------------------------5p==3---5---|
 |
 |                                    |---3---|
 | E    E       E     E    E    E     E   E   E
e|------------------------------------------------|
B|------------------------------------------------|
G|-2----2-------4-----2----2----2-----4p==2-------|
D|-2----2-------4-----2----2----2-----4p==2---4---|
A|-0---(0)-----(0)---(0)---0---(0)---(0)-(0)-(0)--|
E|------------------------------------------------|


    |---3---|  |---3----|  |--3---| |----5----|
    E   E   E  E  E     E +E  E   E S S S   S S
e|----------5--7p=5-----7-(7)-7p==5-7h8p7p==5-7-|
B|-(0)-/7---------------------------------------|
G|----------------------------------------------|
D|----------------------------------------------|
A|----------------------------------------------|
E|----------------------------------------------|
 |
 |  E     E    E     E     E    E   E     E
e|----------------------------------------------|
B|-------------------0----(0)-------------0-----|
G|-------------------0----(0)-------------0-----|
D|--------0---(0)---(0)---(0)---0---2-----0-----|
A|--------1s===2--------------------------------|
E|--3----------------------3--------------------|


    |-3--|  |---6---|  |--3---|
   +E  E E  S S S S E +E  E   E a S S S S
e|-(7)-7-5--7h8p7p5-7-(7)-7---5-5h8p5-----|
B|------------------------------------7p5-|
G|----------------------------------------|
D|----------------------------------------|
A|----------------------------------------|
E|----------------------------------------|
 |
 | +Q       E     E   +E    E     E   E
e|----------------------------------------|
B|-(0)------------------------------------|
G|-(0)------------0---(0)-----------------|
D|-(0)------------0---(0)---0-----2-------|
A|---------/2-------------------------0---|
E|----------------------------------------|


   |3-|                  |-3-|
   E  Q     E       E    E   Q    E     E
e|-------------------------------17----17----|
B|---20b22-20b22---17---20--20---17----17----|
G|-x-------20b21-----------------19b20-19b20-|
D|-x-----------------------------19----19----|
A|-------------------------------------------|
E|-------------------------------------------|
 |
 |          |----3----|
 | Q        E    E    E +E     E  Q
e|-------------------------------------------|
B|-------------------------------------------|
G|--------------------2-(2)----2--4----------|
D|--------------------2-(2)----2--4----------|
A|-0--------3----4---------------------------|
E|-------------------------------------------|


   |---3----|  |------3------|       |-3-|
   E  E     E  E   E         E      +E   Q      E       E
e|----------0-------------------------------------------------|
B|----------0-------------------------------------------------|
G|---17-----------16b18-----16b18==(16)r-0-----14------14-----|
D|-x-17--------x-------------------------0--------------------|
A|-x-----------x----------------------------------------------|
E|------------------------------------------------------------|
 |
 |                                              |----3-----|
 | E     E     E         E           E      E   E   E      E
e|------------------------------------------------------------|
B|------------------------------------------------------------|
G|-2-----2-----4---------2-----------2------2---4p==2---------|
D|-2-----2-----4---------2-----------2------2---4p==2------4--|
A|-0----(0)---(0)-------(0)----------0-----(0)-(0)-(0)----(0)-|
E|------------------------------------------------------------|


   |--3---|  |----3----|  |---3----|  |---3---|
   E E    E  E   E     E  E   E    E  E  E    E
e|----------------------------------------------|
B|-------12-----12-------12--12---12-12-12---12-|
G|----------------------------------------------|
D|-x-9-------9---------9--9---9----9--9--9----9-|
A|----------------------------------------------|
E|----------------------------------------------|
 |
 | E   E     E      E     E     E     E    E
e|----------------------------------------------|
B|------------------0----(0)---------------0----|
G|------------------0----(0)---------------0----|
D|-----0----(0)----(0)---(0)----0-----2----0----|
A|-----1s====2----------------------------------|
E|-3----------------------3---------------------|


    |--3--|       |---3----|    |---3---|
    E  E  E  E E  E   E    E a  E  E    E
e|----------------------------------------|
B|-12--x-12-12-x-12--12---12-----------14-|
G|----------------------------------------|
D|--9--x--9--9-x--9---9----9-9s11-11---11-|
A|----------------------------------------|
E|----------------------------------------|
 |
 | +Q        E E +E     E       E    E
e|----------------------------------------|
B|-(0)------------------------------------|
G|-(0)---------0-(0)----------------------|
D|-(0)---------0-(0)----0-------2---------|
A|----------/2-----------------------0----|
E|----------------------------------------|


     |--3---|            |---3----|  |--3--|
    +E   E  E  E    E    E   E    E  E  E  E
e|-------------------------------------------|
B|-(14)----15-15------------17---17----------|
G|-------------------------------------------|
D|-(11)-12-12-12---12---14--14---14-17-17-16-|
A|-------------------------------------------|
E|-------------------------------------------|
 |
 |             |--3---|
 |   Q         E E    E +E     E     Q
e|-------------------------------------------|
B|-------------------------------------------|
G|--------------------2-(2)----2-----4-------|
D|--------------------2-(2)----2-----4-------|
A|---0---------3-4---------------------------|
E|-------------------------------------------|


    |----3----|          |----3----|  |---3---|
    E  E      E  E   E   E  E      E  E   E   E
e|-----------------------------------------------*|
B|-20-----------20---------20----------------20--*|
G|-----------------------------------------------*|
D|-17-17-----16-17--16--17--------17-17--17------*|
A|-----------------------------------------------*|
E|-----------------------------------------------*|
 |
 |                                    |---3---|
 |  E     E      E   E   E     E      E   E   E
e|-----------------------------------------------*|
B|-----------------------------------------------*|
G|--2-----2------4---2---2-----2------4p==2------*|
D|--2-----2------4---2---2-----2------4p==2---4--*|
A|--0----(0)----(0)-(0)--0----(0)----(0)-(0)-(0)-*|
E|-----------------------------------------------*|



************************************

| x    Dead note
| (n)  Ghost note
| h    Hammer-on
| p    Pull-off
| b    Bend
| /    Slide up
| \    Slide down
| s    Slide

************************************
Suggest correction
comments
print report bad tab
2 comments total.
+1 reply
Kevin67 20 wrote on August 6 2006, 03:00 pm

Great tab for guitar 1 but I think you kinda imagined guitar 2.
Well at least I can't hear it.
5 stars anyways

0 reply
swiftlessons 142 wrote on November 21 2014, 01:22 pm

Guitar two is definitely there, but its buried down real low in the mix and blending in with piano.

guest
You may want to rate the tab now too:
select rating
Wanna post a correction for this tab? Suggest correction