Oops, an error
Loading. Please wait.

The Boston Rag Tab

3,155 views 3 this week
no commentswrite comment
1 2 3 4 5
please rate
add to favorites
launch autoscroll
font size
0
reset
how to read this tab
guitar tuner
Autoscroll
slow
fast
+/-
esc
set tempo
stop
Help us to improve Ultimate-Guitar.com Take our survey!
×
Author
-----------------------------------------------------------------------------
                        The Boston Rag - Steely Dan
-----------------------------------------------------------------------------
Tabbed by: dave
Email: thischarmingman13@gmail.com

Tuning: std


I will keep adding parts when I have time.
If you have something to contribute, email me!
I will add you to the credits.

The timing is crucial, listen to the track to figure out the trill parts.

e|-------------------10-------------------------------------------------------|
B|-/12------10-11-13----13---11-10t----10-11-13-----10---8--------------------|
G|-----12---------------------------12----------10-----10--7-10---------------|
D|----------------------------------------------------------------------------|
A|----------------------------------------------------------------------------|
E|----------------------------------------------------------------------------|

e|-10----------------------------10-13/17---13-10-------10-8-----------------|
B|----13-11-10t--10h11p10----10-------------------13-10------10-8------------|
G|------------------------12-------------------------------------------------|
D|---------------------------------------------------------------------------|
A|---------------------------------------------------------------------------|
E|---------------------------------------------------------------------------|

e|---------------------------------------------------------------------------|
B|-13-10--------10-----------------------------------------------------------|
G|-------12-10-----12-10-----------------------------------------------------|
D|-----------------------12--------------------------------------------------|
A|---------------------------------------------------------------------------|
E|---------------------------------------------------------------------------|

e|----10--8---6---5-------10--8---6---5--------------------------------------|
B|---------------------------------------------------------------------------|
G|-/10--/9--/7--/5-----/10--/9--/7--/5---------------------------------------|
D|---------------------------------------------------------------------------|
A|---------------------------------------------------------------------------|
E|---------------------------------------------------------------------------|

| /  slide up
| t  trill
=============================================================================
Suggest correction
Give kudos to tab author, rate the tab!
1 2 3 4 5
comments
print report bad tab
guest
You may want to rate the tab now too:
select rating
Wanna post a correction for this tab? Suggest correction