Oops, an error
Loading. Please wait.

Things I Miss The Most Acoustic tab

49 views 1 this week
no commentswrite comment
1 2 3 4 5
3 more votes to show rating
add to favorites
×
Save as Personal and add changes to this tab that will be seen only by you. Learn more ›
×
You can save this tab as Personal to edit and correct it or add notes. All changes will be seen only by you. Learn more »
launch autoscroll
font size
0
reset
how to read this tab
guitar tuner
edit
Autoscroll
slow
fast
+/-
esc
set tempo
stop
Author
Difficulty
verse

     I don't mind the quiet and the lonely nights

      Am7
e|----0---------------------5--------------5---7h----5-----------------------|
B|----1---------------------5--------------5---------5-----------------------|
G|----0---------------------5--------------5---------5-----------------------|
D|----2---------------------6--------------5---------4-----------------------|
A|---0---------------------0--------------0---------0------------------------|
E|------------------------0--------------------------------------------------|

     I don't miss the funky attitude and I don't miss the fights

             Fmaj7                                              Esus   E7
e|--------------0-------0-------0---0----------------------------------------|
B|--------------1-------0-------0---1--------0--------------0-----0----------|
G|--------------2-------2-------0---2--------2--------------2-----1----------|
D|--------------3-------3-------3---3--------1--------------0-----0----------i
A|-------------0-------0-------0---0--------0--------------2-----2-----------|
E|--------------------------------------0--1--------------0-----0------------|


     I lie on the couch till suppertime  I hunker down and read the Post

       Emaj                   E7
e|--------------2------------------------------0------0--------------5-------|
B|------0-------0--------------0----0---------0------0---------------5-------|
G|------2-------2--------------7----7--------5------5----------------0-------|
D|------1-------1--------------6----6-------3------2-----------------2-------|
A|------2-------2--------------7----5------0------0------------------0-------|
E|-----0----------------------0----0-----------------------------------------|

    and that is when I remember the things I miss the most

      Dm9        F7                 E7               Am9
e|----1----------1-------------------0------0--------0-----3p----------------|
B|----1----------1-------------------0------0--------0---3p------------------|
G|----2----------2-------------------7------7--------5-----------------------|
D|----0----------1-------------------6------0--------5-----------------------|
A|---0-----------3-------------------7------7--------0-----------------------|
E|--0------------1-------------------0------4--------0-----------------------|


[Chorus]

    the talk     the sex     somebody to trust

      Em11b5                   Am
e|-----3-----------1------------0--------1-----------------------------------|
B|-----3-----------1------------1--------1-----------------------------------|
G|-----2-----------1------------2--------0-----------------------------------|
D|-----0-----------0------------2--------0-----------------------------------|
A|----1-----------2------------0--------1------------------------------------|
E|---0-----------0------------0--------0-------------------------------------|

   the Audi TT          the house on the Vineyard       the house on the Gulf coast

           FM7 add6              G                               Am
e|------------------------------3------3--3-----------------------5----------|
B|-----------1---0---1----------3------3--3-----------------------5----------|
G|-----------2---0---2----------0------0--0-----------------------5----------|
D|-----------0---0---0----------0------0--0-----------------------7----------|
A|------------------------------2------0--2-----------------------0----------|
E|--0-1------1---1---1---------3---- --2--3----------------------0-----------|

    these are the things I miss the most

e|-----5---------5------5---------2p-----------------------------------------|
B|-----5---------5------5--------2-------------------------------------------|
G|-----5---------5------5-------0--------------------------------------------|
D|-----6---------0------4------2---------------------------------------------|
A|-----0---------0------0----------------------------------------------------|
E|----------------------------2----------------------------------------------|

bridge

    I had a little birdie  friend      by morning she was gone

      C+M13                C             Gsus4...    CMaj
                           
e|-----0----------------------------------3-----------3----------------------|
B|-----0-------------------5--------------3-----------5----------------------|
G|-----5-------------------5--------------3-----------4----------------------|
D|-----6-------------------5--------------7-----------5----------------------|
A|-----0-------------------3--------------3-----------3----------------------|
E|-----0----------------------------------3-----------3----------------------|


Birdie bye bye       birdie bye bye   birdie bye bye    birdie bye bye

       G#    G#M7       Bb             Gm       Cm        Gm11      C add9

e|-----4------3------------------------3--------3----------1---------0-------|
B|-----4------4---------3-------4------3--------4----------1---------3-------|
G|-----5------5---------3-------3------3--------5----------3---------0-------|
D|-----6------5---------3-------3------5--------5----------3---------2-------|
A|-----6------x---------1-------1------5--------3----------1---------3-------|
E|-----4------4------------------------3--------3----------3-----------------|



       FMaj   EM11   Bm7..   Am7     Dm9   Am9   Esus4  E7   Am
e|------1------3------0------0--------0-----0-----0-----0-----0--------------|
B|------1------3------3------5--------5-----0-----0-----0-----1--------------|
G|------0------2------4------5--------5-----5-----2-----1-----0--------------|
D|------3------0------5------5--------3-----5-----0-----0-----2--------------|
A|------0------2------0------0--------5-----3-----2-----2-----0---------------
E|------0-------------0------0--------------5-----0-----0-----0--------------|


     Bb     C     G#M7     G#M7 add6               Bb   C    G#     Am

e|-----------------x--------x--------------------------------4------0--------|
B|---3------5------x--------x---------------------3-----5----4------1--------|
G|---3------5------0--------0---------------------3-----5----5------2--------|
D|---3------5------5--------3---------------------3-----5----6------2--------|
A|---1------3------3--------3---------------------1-----3----6------0--------|
E|-----------------4--------4--------------------------------4------0--------|



I have a video of the live performance might be helpful:


https://www.youtube.com/watch?v=67ejHlmFafA


************************************

| x   Dead note
| g   Grace note
| (n) Ghost note
| h   Hammer-on
| p   Pull-off
| r   Release
| >   Accented note
| t   Tapping
| b   Bend
| br  Bend release
| pb  Pre-bend
| pbr Pre-bend release
| /   Slide up
| \   Slide down
| ~   Vibrato
| s   Slap
| P   Pop
| PM  Palm mute
| TR  Trill
| N   Tremolo

************************************

            
            
Suggest correction
Creating personal tab
Creating personal tab
You can edit any tab online and save it as your Personal.

You can edit, replace or remove any tab part or add personal notes – all changes will be seen only by you.

Personal tabs can be accessed anytime from any device, even offline.
Learn more »
Give kudos to tab author, rate the tab!
1 2 3 4 5
comments
print report bad tab
guest
You may want to rate the tab now too:
select rating
Wanna post a correction for this tab? Suggest correction