Oops, an error
Loading. Please wait.

Two Against Nature bass

127 views 3 this week
no commentswrite comment
1 2 3 4 5
3 more votes to show rating
add to favorites
×
Save as Personal and add changes to this tab that will be seen only by you. Learn more ›
×
You can save this tab as Personal to edit and correct it or add notes. All changes will be seen only by you. Learn more »
launch autoscroll
font size
0
reset
guitar tuner
edit
Autoscroll
slow
fast
+/-
esc
set tempo
stop
Author
                                 Two Against Nature
                                     Steely Dan

Bass                                                          Donald Fagen
                                                             Walter Becker

As played by Walter Becker

In 3/2

Intro

10 Bars Rest

G||----------------------|---------------------|---------------------|
D||o------4---4----------|------4---4----------|------4---4----------|
A||----------------4--2--|---------------2-----|---------------4--2--|
E||o-4----------4--------|-4----------4--------|-4----------4--------|
B||----------------------|---------------------|---------------------|
     Q  E E E E Q  Q  Q    Q  E E E E Q  H       Q  E E E E Q  Q  Q

G|---------------------|---------------------|---------------------|
D|------4---4----------|------4---4----------|------4---4----------|
A|---------------2--4--|---------------4--2--|---------------2-----|
E|-4----------4--------|-4----------4--------|-4----------4--------|
B|---------------------|---------------------|---------------------|
   Q  E E E E Q  Q  Q    Q  E E E E Q  Q  Q    Q  E E E E Q  H    

G|---------------------|-----------------------||
D|------4---4----------|------4---4-----------o||
A|---------------4--2--|--------------2----4---||
E|-4----------4--------|-4----------4----4----o||
B|---------------------|-----------------------||
   Q  E E E E Q  Q  Q    Q  E E E E E Q  E Q

Verse 1

G|---------------------|---------------------|---------------------|
D|------4---4----------|------4---4----------|------4---4----------|
A|---------------4--2--|---------------2-----|---------------4--2--|
E|-4----------4--------|-4----------4--------|-4----------4--------|
B|---------------------|---------------------|---------------------|
   Q  E E E E Q  Q  Q    Q  E E E E Q  H       Q  E E E E Q  Q  Q

G|---------------------|---------------------|---------------------|
D|------4---4----------|------4---4----------|------4---4----------|
A|---------------2--4--|---------------4--2--|---------------2-----|
E|-4----------4--------|-4----------4--------|-4----------4--------|
B|---------------------|---------------------|---------------------|
   Q  E E E E Q  Q  Q    Q  E E E E Q  Q  Q    Q  E E E E Q  H    

G|---------------------|----------------------|
D|------4---4----------|------4---4-----------|
A|---------------4--2--|--------------2----4--|
E|-4----------4--------|-4----------4----4----|
B|---------------------|----------------------|
   Q  E E E E Q  Q  Q    Q  E E E E E Q  E Q

G|---------------------|---------------------|---------------------|
D|------4---4----------|------4---4----------|------4---4----------|
A|---------------4--2--|---------------2--4--|---------------4--2--|
E|-4----------4--------|-4----------4--------|-4----------4--------|
B|---------------------|---------------------|---------------------|
   Q  E E E E Q  Q  Q    Q  E E E E Q  Q  Q    Q  E E E E Q  Q  Q

G|---------------------|----------------------|----------------------|
D|---------------------|------4---4-----------|------4---4-----------|
A|------4---4----2--4--|---------------2-4-2--|---------------2--2-4-|
E|-4----------4--------|-4----------4---------|-4----------4---------|
B|---------------------|----------------------|----------------------|
   Q  E E E E Q  Q  Q    Q  E E E E Q  E E Q    Q  E E E E Q  Q  E E 

G|---------------------|----------------------|
D|------4---4----------|------4---4-----------|
A|---------------4--2--|--------------2----4--|
E|-4----------4--------|-4----------4---------|
B|---------------------|----------------------|
   Q  E E E E Q  Q  Q    Q  E E E E E Q  E Q

Chorus 1

G|---------------------|---------------------|---------------------|
D|---------------------|---------------------|---------------------|
A|------5---5----------|------5---5----------|------5---5----------|
E|---------------5--3--|---------------3-----|---------------5--3--|
B|-5----------5--------|-5----------5--------|-5----------5--------|
   Q  E E E E Q  Q  Q    Q  E E E E Q  H       Q  E E E E Q  Q  Q

G|---------------------|---------------------|---------------------|
D|---------------------|---------------------|---------------------|
A|------5---5----------|------5---5----------|------5---5----------|
E|---------------3--5--|---------------5--3--|---------------3-----|
B|-5----------5--------|-5----------5--------|-5----------5--------|
   Q  E E E E Q  Q  Q    Q  E E E E Q  Q  Q    Q  E E E E Q  H

G|---------------------|----------------------|
D|---------------------|----------------------|
A|------5---5----------|------5---5-----------|
E|---------------5--3--|--------------3----5--|
B|-5----------5--------|-5----------5----5----|
   Q  E E E E Q  Q  Q    Q  E E E E E Q  E Q

Interlude 1

G|---------------------|---------------------|---------------------|
D|------4---4----------|------4---4----------|------4---4----------|
A|---------------4--2--|---------------2-----|---------------4--2--|
E|-4----------4--------|-4----------4--------|-4----------4--------|
B|---------------------|---------------------|---------------------|
   Q  E E E E Q  Q  Q    Q  E E E E Q  H       Q  E E E E Q  Q  Q

G|---------------------|
D|------4---4----------|
A|---------------2--4--|
E|-4----------4--------|
B|---------------------|
   Q  E E E E Q  Q  Q  

Verse 2

G|---------------------|---------------------|---------------------|
D|------4---4----------|------4---4----------|------4---4----------|
A|---------------4--2--|---------------2-----|---------------4--2--|
E|-4----------4--------|-4----------4--------|-4----------4--------|
B|---------------------|---------------------|---------------------|
   Q  E E E E Q  Q  Q    Q  E E E E Q  H       Q  E E E E Q  Q  Q

G|---------------------|---------------------|---------------------|
D|------4---4----------|------4---4----------|------4---4----------|
A|---------------2--4--|---------------4--2--|---------------2-----|
E|-4----------4--------|-4----------4--------|-4----------4--------|
B|---------------------|---------------------|---------------------|
   Q  E E E E Q  Q  Q    Q  E E E E Q  Q  Q    Q  E E E E Q  H    

G|---------------------|----------------------|
D|------4---4----------|------4---4-----------|
A|---------------4--2--|--------------2----4--|
E|-4----------4--------|-4----------4----4----|
B|---------------------|----------------------|
   Q  E E E E Q  Q  Q    Q  E E E E E Q  E Q

G|---------------------|---------------------|---------------------|
D|------4---4----------|------4---4----------|------4---4----------|
A|---------------4--2--|---------------2--4--|---------------4--2--|
E|-4----------4--------|-4----------4--------|-4----------4--------|
B|---------------------|---------------------|---------------------|
   Q  E E E E Q  Q  Q    Q  E E E E Q  Q  Q    Q  E E E E Q  Q  Q

G|---------------------|----------------------|----------------------|
D|---------------------|------4---4-----------|------4---4-----------|
A|------4---4----2--4--|---------------2-4-2--|---------------2--2-4-|
E|-4----------4--------|-4----------4---------|-4----------4---------|
B|---------------------|----------------------|----------------------|
   Q  E E E E Q  Q  Q    Q  E E E E Q  E E Q    Q  E E E E Q  Q  E E 

G|---------------------|----------------------|
D|------4---4----------|------4---4-----------|
A|---------------4--2--|--------------2----4--|
E|-4----------4--------|-4----------4---------|
B|---------------------|----------------------|
   Q  E E E E Q  Q  Q    Q  E E E E E Q  E Q

Chorus 2

G|---------------------|---------------------|---------------------|
D|---------------------|---------------------|---------------------|
A|------5---5----------|------5---5----------|------5---5----------|
E|---------------5--3--|---------------3-----|---------------5--3--|
B|-5----------5--------|-5----------5--------|-5----------5--------|
   Q  E E E E Q  Q  Q    Q  E E E E Q  H       Q  E E E E Q  Q  Q

G|---------------------|---------------------|---------------------|
D|---------------------|---------------------|---------------------|
A|------5---5----------|------5---5----------|------5---5----------|
E|---------------3--5--|---------------5--3--|---------------3-----|
B|-5----------5--------|-5----------5--------|-5----------5--------|
   Q  E E E E Q  Q  Q    Q  E E E E Q  Q  Q    Q  E E E E Q  H

G|---------------------|----------------------|
D|---------------------|----------------------|
A|------5---5----------|------5---5-----------|
E|---------------5--3--|--------------3----5--|
B|-5----------5--------|-5----------5----5----|
   Q  E E E E Q  Q  Q    Q  E E E E E Q  E Q

Guitar Solo

G|---------------------|---------------------|---------------------|
D|------5---5----5-----|------5---5----------|------5---5----5-----|
A|---------------------|---------------7-----|---------------------|
E|-5----------5-----5--|-5----------5--------|-5----------5-----5--|
B|---------------------|---------------------|---------------------|
   Q  E E E E Q  Q  Q    Q  E E E E Q  H       Q  E E E E Q  Q  Q

G|---------------------|---------------------|---------------------|
D|------5---5----------|------4---4----7-----|------3---3----3-----|
A|---------------7-----|---------------------|------------3--------|
E|-5----------5--------|-5----------5-----5--|-1-------------------|
B|---------------------|---------------------|---------------------|
   Q  E E E E Q  H       Q  E E E E Q  Q  Q    Q  E E E E Q  H    

G|---------------------|---------------------|---------------------|
D|---------------------|---------------------|---------------------|
A|------3---3----------|------3---3----------|------3---3----------|
E|---------------3--1--|---------------1-----|---------------3--1--|
B|-3----------3--------|-3----------3--------|-3----------3--------|
   Q  E E E E Q  Q  Q    Q  E E E E Q  H       Q  E E E E Q  Q  Q

G|---------------------|---------------------|---------------------|
D|---------------------|---------------------|---------------------|
A|------3---3----------|------3---3----------|------3---3----------|
E|---------------1--3--|---------------3--1--|---------------1-----|
B|-3----------3--------|-3----------3--------|-3----------3--------|
   Q  E E E E Q  Q  Q    Q  E E E E Q  Q  Q    Q  E E E E Q  H    

G|---------------------|---------------------|
D|---------------------|---------------------|
A|------3---3----------|------3---3----------|
E|---------------3--1--|---------------1--3--|
B|-3----------3--------|-3----------3--------|
   Q  E E E E Q  Q  Q    Q  E E E E Q  Q  Q

Sax Solo

G|---------------------|---------------------|---------------------|
D|---------------------|---------------------|---------------------|
A|------3---3----------|------3---3----------|------3---3----------|
E|---------------3--1--|---------------1-----|---------------3--1--|
B|-3----------3--------|-3----------3--------|-3----------3--------|
   Q  E E E E Q  Q  Q    Q  E E E E Q  H       Q  E E E E Q  Q  Q

G|----------------------|---------------------|---------------------|
D|----------------------|---------------------|---------------------|
A|------3---3-----------|------3---3----------|------3---3----------|
E|--------------1----3--|---------------3--1--|---------------1-----|
B|-3----------3----3----|-3----------3--------|-3----------3--------|
   Q  E E E E E Q  E Q    Q  E E E E Q  Q  Q    Q  E E E E Q  H    

G|---------------------|---------------------|---------------------|
D|---------------------|---------------------|---------------------|
A|------3---3----------|------3---3----------|------3---3----------|
E|---------------3--1--|---------------1--3--|---------------3--1--|
B|-3----------3--------|-3----------3--------|-3----------3--------|
   Q  E E E E Q  Q  Q    Q  E E E E Q  Q  Q    Q  E E E E Q  Q  Q
  
G|---------------------|---------------------|----------------------|
D|---------------------|---------------------|----------------------|
A|------3---3----------|------3---3----------|------3---3-----------|
E|---------------1-----|---------------3--1--|--------------1----3--|
B|-3----------3--------|-3----------3--------|-3----------3----1----|
   Q  E E E E Q  H       Q  E E E E Q  Q  Q    Q  E E E E E Q  E Q

Verse 3

G|---------------------|---------------------|---------------------|
D|------4---4----------|------4---4----------|------4---4----------|
A|---------------4--2--|---------------2-----|---------------4--2--|
E|-4----------4--------|-4----------4--------|-4----------4--------|
B|---------------------|---------------------|---------------------|
   Q  E E E E Q  Q  Q    Q  E E E E Q  H       Q  E E E E Q  Q  Q

G|---------------------|---------------------|---------------------|
D|------4---4----------|------4---4----------|------4---4----------|
A|---------------2--4--|---------------4--2--|---------------2-----|
E|-4----------4--------|-4----------4--------|-4----------4--------|
B|---------------------|---------------------|---------------------|
   Q  E E E E Q  Q  Q    Q  E E E E Q  Q  Q    Q  E E E E Q  H    

G|---------------------|----------------------|
D|------4---4----------|------4---4-----------|
A|---------------4--2--|--------------2----4--|
E|-4----------4--------|-4----------4----4----|
B|---------------------|----------------------|
   Q  E E E E Q  Q  Q    Q  E E E E E Q  E Q

G|---------------------|---------------------|---------------------|
D|------4---4----------|------4---4----------|------4---4----------|
A|---------------4--2--|---------------2--4--|---------------4--2--|
E|-4----------4--------|-4----------4--------|-4----------4--------|
B|---------------------|---------------------|---------------------|
   Q  E E E E Q  Q  Q    Q  E E E E Q  Q  Q    Q  E E E E Q  Q  Q

G|---------------------|----------------------|----------------------|
D|---------------------|------4---4-----------|------4---4-----------|
A|------4---4----2--4--|---------------2-4-2--|---------------2--2-4-|
E|-4----------4--------|-4----------4---------|-4----------4---------|
B|---------------------|----------------------|----------------------|
   Q  E E E E Q  Q  Q    Q  E E E E Q  E E Q    Q  E E E E Q  Q  E E 

G|---------------------|----------------------|
D|------4---4----------|------4---4-----------|
A|---------------4--2--|--------------2----4--|
E|-4----------4--------|-4----------4---------|
B|---------------------|----------------------|
   Q  E E E E Q  Q  Q    Q  E E E E E Q  E Q

Chorus 3

G||----------------------|---------------------|---------------------|
D||o---------------------|---------------------|---------------------|
A||-------5---5----------|------5---5----------|------5---5----------|
E||o---------------5--3--|---------------3-----|---------------5--3--|
B||--5----------5--------|-5----------5--------|-5----------5--------|
     Q  E E E E Q  Q  Q    Q  E E E E Q  H       Q  E E E E Q  Q  Q

G|---------------------|---------------------|---------------------|
D|---------------------|---------------------|---------------------|
A|------5---5----------|------5---5----------|------5---5----------|
E|---------------3--5--|---------------5--3--|---------------3-----|
B|-5----------5--------|-5----------5--------|-5----------5--------|
   Q  E E E E Q  Q  Q    Q  E E E E Q  Q  Q    Q  E E E E Q  H

G|---------------------|-----------------------||
D|---------------------|----------------------o||
A|------5---5----------|------5---5------------||
E|---------------5--3--|--------------3----5--o||
B|-5----------5--------|-5----------5----5-----||
   Q  E E E E Q  Q  Q    Q  E E E E E Q  E Q

Interlude 2

G|---------------------|---------------------|---------------------|
D|------4---4----------|------4---4----------|------4---4----------|
A|---------------4--2--|---------------2-----|---------------4--2--|
E|-4----------4--------|-4----------4--------|-4----------4--------|
B|---------------------|---------------------|---------------------|
   Q  E E E E Q  Q  Q    Q  E E E E Q  H       Q  E E E E Q  Q  Q

G|---------------------|---------------------|---------------------|
D|------4---4----------|------4---4----------|------4---4----------|
A|---------------2--4--|---------------4--2--|---------------2-----|
E|-4----------4--------|-4----------4--------|-4----------4--------|
B|---------------------|---------------------|---------------------|
   Q  E E E E Q  Q  Q    Q  E E E E Q  Q  Q    Q  E E E E Q  H    

G|---------------------|----------------------|
D|------4---4----------|------4---4-----------|
A|---------------4--2--|--------------2----4--|
E|-4----------4--------|-4----------4----4----|
B|---------------------|----------------------|
   Q  E E E E Q  Q  Q    Q  E E E E E Q  E Q

Verse 4

G|---------------------|---------------------|---------------------|
D|------4---4----------|------4---4----------|------4---4----------|
A|---------------4--2--|---------------2--4--|---------------4--2--|
E|-4----------4--------|-4----------4--------|-4----------4--------|
B|---------------------|---------------------|---------------------|
   Q  E E E E Q  Q  Q    Q  E E E E Q  Q  Q    Q  E E E E Q  Q  Q

G|---------------------|----------------------|----------------------|
D|---------------------|------4---4-----------|------4---4-----------|
A|------4---4----2--4--|---------------2-4-2--|---------------2--2-4-|
E|-4----------4--------|-4----------4---------|-4----------4---------|
B|---------------------|----------------------|----------------------|
   Q  E E E E Q  Q  Q    Q  E E E E Q  E E Q    Q  E E E E Q  Q  E E 

G|---------------------|----------------------|
D|------4---4----------|------4---4-----------|
A|---------------4--2--|--------------2----4--|
E|-4----------4--------|-4----------4---------|
B|---------------------|----------------------|
   Q  E E E E Q  Q  Q    Q  E E E E E Q  E Q

G|---------------------|---------------------|---------------------|
D|------4---4----------|------4---4----------|------4---4----------|
A|---------------4--2--|---------------2-----|---------------4--2--|
E|-4----------4--------|-4----------4--------|-4----------4--------|
B|---------------------|---------------------|---------------------|
   Q  E E E E Q  Q  Q    Q  E E E E Q  H       Q  E E E E Q  Q  Q

G|---------------------|---------------------|---------------------|
D|------4---4----------|------4---4----------|------4---4----------|
A|---------------2--4--|---------------4--2--|---------------2-----|
E|-4----------4--------|-4----------4--------|-4----------4--------|
B|---------------------|---------------------|---------------------|
   Q  E E E E Q  Q  Q    Q  E E E E Q  Q  Q    Q  E E E E Q  H    

G|---------------------|----------------------|
D|------4---4----------|------4---4-----------|
A|---------------4--2--|--------------2----4--|
E|-4----------4--------|-4----------4----4----|
B|---------------------|----------------------|
   Q  E E E E Q  Q  Q    Q  E E E E E Q  E Q

Outro

G|---------------------|---------------------|---------------------|
D|------4---4----------|------4---4----------|------4---4----------|
A|---------------4--2--|---------------2--4--|---------------4--2--|
E|-4----------4--------|-4----------4--------|-4----------4--------|
B|---------------------|---------------------|---------------------|
   Q  E E E E Q  Q  Q    Q  E E E E Q  Q  Q    Q  E E E E Q  Q  Q

G|---------------------|----------------------|----------------------|
D|---------------------|------4---4-----------|------4---4-----------|
A|------4---4----2--4--|---------------2-4-2--|---------------2--2-4-|
E|-4----------4--------|-4----------4---------|-4----------4---------|
B|---------------------|----------------------|----------------------|
   Q  E E E E Q  Q  Q    Q  E E E E Q  E E Q    Q  E E E E Q  Q  E E 

G|---------------------|----------------------|
D|------4---4----------|------4---4-----------|
A|---------------4--2--|--------------2----4--|
E|-4----------4--------|-4----------4---------|
B|---------------------|----------------------|
   Q  E E E E Q  Q  Q    Q  E E E E E Q  E Q

G|---------------------|---------------------|---------------------|
D|------4---4----------|------4---4----------|------4---4----------|
A|---------------4--2--|---------------2-----|---------------4--2--|
E|-4----------4--------|-4----------4--------|-4----------4--------|
B|---------------------|---------------------|---------------------|
   Q  E E E E Q  Q  Q    Q  E E E E Q  H       Q  E E E E Q  Q  Q

G|---------------------|---------------------|---------------------|
D|------4---4----------|------4---4----------|------4---4----------|
A|---------------2--4--|---------------4--2--|---------------2-----|
E|-4----------4--------|-4----------4--------|-4----------4--------|
B|---------------------|---------------------|---------------------|
   Q  E E E E Q  Q  Q    Q  E E E E Q  Q  Q    Q  E E E E Q  H    

                                 Repeat to fade
G|---------------------|-----------------------||
D|------4---4----------|------4---4-----------o||
A|---------------4--2--|--------------2----4---||
E|-4----------4--------|-4----------4----4----o||
B|---------------------|-----------------------||
   Q  E E E E Q  Q  Q    Q  E E E E E Q  E Q


Key to rhythm notations:

W - Whole Note/Semi-Brieve
H - Half Note/Minim
Q - Quarter Note/Crotchet       Q. - Dotted Quarter Note
E - Eight Note/Quaver           E. - Dotted Eight Note
S - Sixteenth Note/Semi-Quaver  S. - Dotted Sixteenth Note

            
            
Suggest correction
Creating personal tab
Creating personal tab
You can edit any tab online and save it as your Personal.

You can edit, replace or remove any tab part or add personal notes – all changes will be seen only by you.

Personal tabs can be accessed anytime from any device, even offline.
Learn more »
Give kudos to tab author, rate the tab!
1 2 3 4 5
comments
print report bad tab
guest
You may want to rate the tab now too:
select rating
Wanna post a correction for this tab? Suggest correction