Oops, an error
Loading. Please wait.

West Of Hollywood Bass Tab

10 views 1 this week
no commentswrite comment
1 2 3 4 5
3 more votes to show rating
add to favorites
launch autoscroll
font size
0
reset
guitar tuner
Autoscroll
slow
fast
+/-
esc
set tempo
stop
Help us to improve Ultimate-Guitar.com Take our survey!
×
Author
Difficulty
intermediate
About this tab version
As recorded with rhythm notation. Was this info helpful? Yes No
                                 West Of Hollywood
                                     Steely Dan

Bass                                                              Donald Fagen
                                                                 Walter Becker

As played by Tom Barney

Intro

8 Bars Rest

Verse 1

G|-----------------|-----------------|-----------------|-----------------|
D|-----------------|-----------------|-----------------|-----------------|
A|-5---2---0-0-2-5-|(5)--2---0-0-2-5-|-----2---0-0-2-5-|-----2---0-0-2-0-|
E|-----------------|-----------------|-3---------------|-3---------------|
B|-----------------|-----------------|-----------------|-----------------|
   Q   Q   E E E E   Q   Q   E E E E   Q   Q   E E E E   Q   Q   E E E E

G|-----------------|-----------------|-----------------|-----------------|
D|-----------------|-2---0-----------|-----------------|-----------------|
A|-5-------0-0-2-5-|---------0-0-2-5-|-5---2---0-0-2-5-|(5)--2---0-0-2-5-|
E|-----------------|-----------------|-----------------|-----------------|
B|-----------------|-----------------|-----------------|-----------------|
   Q   Q   E E E E   Q   Q   E E E E   Q   Q   E E E E   Q   Q   E E E E

G|-----------------|-----------------|-----------------|-----------------|
D|-----------------|-----------------|-----------------|-----------------|
A|-5---2---0-0-2-5-|(5)--2---0-0-2-5-|-----2---0-0-2-5-|-----2---0-0-2-0-|
E|-----------------|-----------------|-3---------------|-3---------------|
B|-----------------|-----------------|-----------------|-----------------|
   Q   Q   E E E E   Q   Q   E E E E   Q   Q   E E E E   Q   Q   E E E E

G|-----------------|-----------------|-----------------|-----------------|
D|-----------------|-2---0-----------|-----------------|-----------------|
A|-5-------0-0-2-5-|---------0-0-2-5-|-5---2---0-0-2-5-|(5)--2---0-0-2-5-|
E|-----------------|-----------------|-----------------|-----------------|
B|-----------------|-----------------|-----------------|-----------------|
   Q   Q   E E E E   Q   Q   E E E E   Q   Q   E E E E   Q   Q   E E E E

G|-----------------|-----------------|-----------------|-----------------|
D|-----------------|-----------------|-----------------|-----------------|
A|-5---2---0-0-2-5-|(5)--2---0-0-2-5-|-5---2---0-0-2-5-|(5)--2---0-0-2-0-|
E|-----------------|-----------------|-----------------|-----------------|
B|-----------------|-----------------|-----------------|-----------------|
   Q   Q   E E E E   Q   Q   E E E E   Q   Q   E E E E   Q   Q   E E E E

G|-----------------|-----------------|-----------------|-----------------|
D|-----------------|-----------------|-----------------|-----------------|
A|-5---2---0-0-2-5-|(5)--2---0-0-2-5-|-5---2---0-0-2-5-|(5)--2---0-0-2-0-|
E|-----------------|-----------------|-----------------|-----------------|
B|-----------------|-----------------|-----------------|-----------------|
   Q   Q   E E E E   Q   Q   E E E E   Q   Q   E E E E   Q   Q   E E E E

G|-----------------|-----------------|-----------------|-----------------|
D|-----------------|-----------------|-----------------|-----------------|
A|-5---2---0-0-2-5-|(5)--2---0-0-2-5-|-----------------|---------5---5---|
E|-----------------|-----------------|-3-----------0-3-|-5---------5-----|
B|-----------------|-----------------|---------1-1-----|-----------------|
   Q   Q   E E E E   Q   Q   E E E E   H       E E E E   H       E E Q

Chorus 1

G|-----------------|-----------------|-----------------|-----------------|
D|-------------5-5-|-------------5-5-|-------------5-5-|-----------------|
A|-----------------|-----------------|-----------------|-----------------|
E|---3---3---3-----|---3---3---3-----|---3---3---3-----|---3---3---3---3-|
B|-----------------|-----------------|-----------------|-----------------|
   E E E E E Q S S   E E E E E Q S S   E E E E E Q S S   E E E E E E E E

G|-----------------|-----------------|-----------------|-----------------|
D|-1-------------1-|-1---------------|-1-------------1-|-1-------------1-|
A|-----3---1-1-3---|-----3---1-1-3-1-|-----3---1-1-3---|-----3---1-1-3---|
E|-----------------|-----------------|-----------------|-----------------|
B|-----------------|-----------------|-----------------|-----------------|
   Q   Q   E E E E   Q   Q   E E E E   Q   Q   E E E E   Q   Q   E E E E

Interlude 1

G|-----------------|-----------------|-----------------|--12-11------------|
D|---2-------2-----|---2-------2-----|---2-------2-----|--------12-7-5-4---|
A|-----------------|-----------------|-----------------|-----------------5-|
E|-0-------0-------|-0-------0-------|-0-------0-------|-0-----------------|
B|-----------------|-----------------|-----------------|-------------------|
   E Q.    E Q.      E Q.    E Q.      E Q.    E Q.      E E  E  E E E E E

G|-----------------|-----------------|-----------------|-----------------|
D|-----------------|-----------------|-----------------|---2-------------|
A|-3-------------3-|(3)--------------|-3-------------3-|-----------------|
E|-----5---3-3-5---|-----5---3-3-5-3-|-----5---3-3-5---|-0---------0-----|
B|-----------------|-----------------|-----------------|-----------------|
   Q   Q   E E E E   Q   Q   E E E E   Q   Q   E E E E   E Q.    E Q.

Verse 2

G|-----------------|-----------------|-----------------|-----------------|
D|-----------------|-----------------|-----------------|-----------------|
A|-5---2---0-0-2-5-|(5)--2---0-0-2-5-|-----2---0-0-2-5-|-----2---0-0-2-0-|
E|-----------------|-----------------|-3---------------|-3---------------|
B|-----------------|-----------------|-----------------|-----------------|
   Q   Q   E E E E   Q   Q   E E E E   Q   Q   E E E E   Q   Q   E E E E

G|-----------------|-----------------|-----------------|-----------------|
D|-----------------|-2---0-----------|-----------------|-----------------|
A|-5-------0-0-2-5-|---------0-0-2-5-|-5---2---0-0-2-5-|(5)--2---0-0-2-5-|
E|-----------------|-----------------|-----------------|-----------------|
B|-----------------|-----------------|-----------------|-----------------|
   Q   Q   E E E E   Q   Q   E E E E   Q   Q   E E E E   Q   Q   E E E E

G|-----------------|-----------------|-----------------|-----------------|
D|-----------------|-----------------|-----------------|-----------------|
A|-5---2---0-0-2-5-|(5)--2---0-0-2-5-|-----2---0-0-2-5-|-----2---0-0-2-0-|
E|-----------------|-----------------|-3---------------|-3---------------|
B|-----------------|-----------------|-----------------|-----------------|
   Q   Q   E E E E   Q   Q   E E E E   Q   Q   E E E E   Q   Q   E E E E

G|-----------------|-----------------|-----------------|-----------------|
D|-----------------|-2---0-----------|-----------------|-----------------|
A|-5-------0-0-2-5-|---------0-0-2-5-|-5---2---0-0-2-5-|(5)--2---0-0-2-5-|
E|-----------------|-----------------|-----------------|-----------------|
B|-----------------|-----------------|-----------------|-----------------|
   Q   Q   E E E E   Q   Q   E E E E   Q   Q   E E E E   Q   Q   E E E E

G|-----------------|-----------------|-----------------|-----------------|
D|-----------------|-----------------|-----------------|-----------------|
A|-5---2---0-0-2-5-|(5)--2---0-0-2-5-|-5---2---0-0-2-5-|(5)--2---0-0-2-0-|
E|-----------------|-----------------|-----------------|-----------------|
B|-----------------|-----------------|-----------------|-----------------|
   Q   Q   E E E E   Q   Q   E E E E   Q   Q   E E E E   Q   Q   E E E E

G|-----------------|-----------------|-----------------|-----------------|
D|-----------------|-----------------|-----------------|-----------------|
A|-5---2---0-0-2-5-|(5)--2---0-0-2-5-|-5---2---0-0-2-5-|(5)--2---0-0-2-0-|
E|-----------------|-----------------|-----------------|-----------------|
B|-----------------|-----------------|-----------------|-----------------|
   Q   Q   E E E E   Q   Q   E E E E   Q   Q   E E E E   Q   Q   E E E E

G|-----------------|-----------------|-----------------|-----------------|
D|-----------------|-----------------|-----------------|-----------------|
A|-5---2---0-0-2-5-|(5)--2---0-0-2-5-|-----------------|---------5---5---|
E|-----------------|-----------------|-3-----------0-3-|-5---------5-----|
B|-----------------|-----------------|---------1-1-----|-----------------|
   Q   Q   E E E E   Q   Q   E E E E   H       E E E E   H       E E Q

Chorus 2

G|-----------------|-----------------|-----------------|-----------------|
D|-------------5-5-|-------------5-5-|-------------5-5-|-----------------|
A|-----------------|-----------------|-----------------|-----------------|
E|---3---3---3-----|---3---3---3-----|---3---3---3-----|---3---3---3---3-|
B|-----------------|-----------------|-----------------|-----------------|
   E E E E E Q S S   E E E E E Q S S   E E E E E Q S S   E E E E E E E E

G|-----------------|-----------------|-----------------|-----------------|
D|-1-------------1-|-1---------------|-1-------------1-|-1-------------1-|
A|-----3---1-1-3---|-----3---1-1-3-1-|-----3---1-1-3---|-----3---1-1-3---|
E|-----------------|-----------------|-----------------|-----------------|
B|-----------------|-----------------|-----------------|-----------------|
   Q   Q   E E E E   Q   Q   E E E E   Q   Q   E E E E   Q   Q   E E E E

Interlude 2

G|-----------------|-----------------|-----------------|--12-11------------|
D|---2-------2-----|---2-------2-----|---2-------2-----|--------12-7-5-4---|
A|-----------------|-----------------|-----------------|-----------------5-|
E|-0-------0-------|-0-------0-------|-0-------0-------|-0-----------------|
B|-----------------|-----------------|-----------------|-------------------|
   E Q.    E Q.      E Q.    E Q.      E Q.    E Q.      E E  E  E E E E E

G|-----------------|-----------------|-----------------|-----------------|
D|-----------------|-----------------|-----------------|---2-------------|
A|-3-------------3-|(3)--------------|-3-------------3-|-----------------|
E|-----5---3-3-5---|-----5---3-3-5-3-|-----5---3-3-5---|-0---------0-----|
B|-----------------|-----------------|-----------------|-----------------|
   Q   Q   E E E E   Q   Q   E E E E   Q   Q   E E E E   E Q.    E Q.

Guitar Solo

G|-----------------|-----------------|-----------------|-----------------|
D|-----4-----------|-----4-----------|-----4-----------|-----4-----------|
A|-----------------|-----------------|-----------------|-----------------|
E|-2-------0-0-2-5-|-2-------0-0-2-5-|-2-------0-0-2-5-|-2-------0-0-2-5-|
B|-----------------|-----------------|-----------------|-----------------|
   Q   Q   E E E E   Q   Q   E E E E   Q   Q   E E E E   Q   Q   E E E E

G|-----------------|-----------------|-----------------|-----------------|
D|---------------1-|---------------1-|-----------------|-----------------|
A|-------1-1-1-3---|---------1-1-3---|---------1-------|-1-------------1-|
E|-----------------|-----------------|-3-3-1-3-----3---|-----3---1-1-3---|
B|-1---------------|-1---------------|-----------------|-----------------|
   Q.  S S E E E E   Q   Q   E E E E   E E E E Q   Q     Q   Q   E E E E

G|-----------------|-----------------|-----------------|-----------------|
D|---------------3-|-----------------|---------------1-|-----------------|
A|-5-------3-3-5---|-5-------3-3-5---|-3-----3-----1---|-3-------------1-|
E|-----------------|---------------3-|---------3-3-----|---------3-3-----|
B|-----------------|-----------------|-----------------|-----------------|
   Q   Q   E E E E   Q   Q   E E E E   Q.  S S E E E E   Q   Q   E Q   E

G|-----------------|-----------------|-----------------|-----------------|
D|-----------------|-----------------|-----------------|-----3---------3-|
A|-3-----3-1-------|-1-------1-1---1-|---------------6-|-------3-----3---|
E|-----3-------1-3-|-----1-3-----3---|-----6-6-----6---|-1-------1-1-----|
B|-----------------|-----------------|-4-------4-4-----|-----------------|
   Q   E E Q   E E   E E E E E E E E   Q   E.S E E E E   Q   E.S E E E E 

G|-----------------|-----------------|
D|-----3---------3-|-----3---------3-|
A|-------3-----3---|-------3-----3---|
E|-1-------1-1-----|-1-------1-1-----|
B|-----------------|-----------------|
   Q   E.S E E E E   Q   E.S E E E E



Bridge

G|-----------------|-----------------|-----------------|-----------------|
D|-4---2-------2---|-4---2-------2-4-|-------6---------|-----------------|
A|---------4-4---4-|---------4-4-----|-6-------4-------|-6---------------|
E|-----------------|-----------------|-------------2-4-|-----4-----------|
B|-----------------|-----------------|-----------------|-----------------|
   Q   Q   E E E E   Q   Q   E E E E   Q.    E Q   E E   E E H.

G|-----------------|-----------------|-----------------|-----------------|
D|-----------------|-----------------|-----------------|-----------------|
A|-----------------|-----------------|-----------------|-----------------|
E|-4-----0-2-2-----|-----------------|-----------------|-----------------|
B|-----------------|-2-2-0-2-4---0-2-|-2-2-0-2-4-------|-2-2-0-2-4---0-2-|
   Q   E E E E Q     E E E E Q   E E   E E E E H         E E E E Q   E E

G|-----------------|-----------------|-----------------|-----------------|
D|-----------------|-----------------|-----------------|-----------------|
A|-----------------|-----------------|-----------------|-----------------|
E|----/6---4-4-6---|-----------------|-----------------|-----------------|
B|-2-2-------------|-2---0-2-4---0-2-|-2-2-0-2-4---2---|-2-2-0-2-4---0-2-|
   E E Q   E E Q     Q   E E Q   E E   E E E E Q   Q     E E E E Q   E E

G|-----------------|
D|-----------------|
A|-----------------|
E|----/6---4-4-6---|
B|-2-2-------------|
   E E Q   E E Q   

Verse 3

G|-----------------|-----------------|-----------------|-----------------|
D|-----------------|-----------------|-----------------|-----------------|
A|-5---2---0-0-2-5-|(5)--2---0-0-2-5-|-----2---0-0-2-5-|-----2---0-0-2-0-|
E|-----------------|-----------------|-3---------------|-3---------------|
B|-----------------|-----------------|-----------------|-----------------|
   Q   Q   E E E E   Q   Q   E E E E   Q   Q   E E E E   Q   Q   E E E E

G|-----------------|-----------------|-----------------|-----------------|
D|-----------------|-2---0-----------|-----------------|-----------------|
A|-5-------0-0-2-5-|---------0-0-2-5-|-5---2---0-0-2-5-|(5)--2---0-0-2-5-|
E|-----------------|-----------------|-----------------|-----------------|
B|-----------------|-----------------|-----------------|-----------------|
   Q   Q   E E E E   Q   Q   E E E E   Q   Q   E E E E   Q   Q   E E E E

G|-----------------|-----------------|-----------------|-----------------|
D|-----------------|-----------------|-----------------|-----------------|
A|-5---2---0-0-2-5-|(5)--2---0-0-2-5-|-----2---0-0-2-5-|-----2---0-0-2-0-|
E|-----------------|-----------------|-3---------------|-3---------------|
B|-----------------|-----------------|-----------------|-----------------|
   Q   Q   E E E E   Q   Q   E E E E   Q   Q   E E E E   Q   Q   E E E E

G|-----------------|-----------------|-----------------|-----------------|
D|-----------------|-2---0-----------|-----------------|-----------------|
A|-5-------0-0-2-5-|---------0-0-2-5-|-5---2---0-0-2-5-|(5)--2---0-0-2-5-|
E|-----------------|-----------------|-----------------|-----------------|
B|-----------------|-----------------|-----------------|-----------------|
   Q   Q   E E E E   Q   Q   E E E E   Q   Q   E E E E   Q   Q   E E E E

G|-----------------|-----------------|-----------------|-----------------|
D|-----------------|-----------------|-----------------|-----------------|
A|-5---2---0-0-2-5-|(5)--2---0-0-2-5-|-5---2---0-0-2-5-|(5)--2---0-0-2-0-|
E|-----------------|-----------------|-----------------|-----------------|
B|-----------------|-----------------|-----------------|-----------------|
   Q   Q   E E E E   Q   Q   E E E E   Q   Q   E E E E   Q   Q   E E E E

G|-----------------|-----------------|-----------------|-----------------|
D|-----------------|-----------------|-----------------|-----------------|
A|-5---2---0-0-2-5-|(5)--2---0-0-2-5-|-5---2---0-0-2-5-|(5)--2---0-0-2-0-|
E|-----------------|-----------------|-----------------|-----------------|
B|-----------------|-----------------|-----------------|-----------------|
   Q   Q   E E E E   Q   Q   E E E E   Q   Q   E E E E   Q   Q   E E E E

G|-----------------|-----------------|-----------------|-----------------|
D|-----------------|-----------------|-----------------|-----------------|
A|-5---2---0-0-2-5-|(5)--2---0-0-2-5-|-----------------|---------5---5---|
E|-----------------|-----------------|-3-----------0-3-|-5---------5-----|
B|-----------------|-----------------|---------1-1-----|-----------------|
   Q   Q   E E E E   Q   Q   E E E E   H       E E E E   H       E E Q

Chorus 3

G|-----------------|-----------------|-----------------|-----------------|
D|-------------5-5-|-------------5-5-|-------------5-5-|-----------------|
A|-----------------|-----------------|-----------------|-----------------|
E|---3---3---3-----|---3---3---3-----|---3---3---3-----|---3---3---3---3-|
B|-----------------|-----------------|-----------------|-----------------|
   E E E E E Q S S   E E E E E Q S S   E E E E E Q S S   E E E E E E E E

G|-----------------|-----------------|-----------------|-----------------|
D|-1-------------1-|-1---------------|-1-------------1-|-1-------------1-|
A|-----3---1-1-3---|-----3---1-1-3-1-|-----3---1-1-3---|-----3---1-1-3---|
E|-----------------|-----------------|-----------------|-----------------|
B|-----------------|-----------------|-----------------|-----------------|
   Q   Q   E E E E   Q   Q   E E E E   Q   Q   E E E E   Q   Q   E E E E

Sax Solo

G||------------------|-----------------|-----------------|---4-------4-----|
D||o---5-------5-----|---2-------2-----|---2-------4-----|-----------------|
A||------------------|-----------------|-----------------|-2-----2-2-----2-|
E||o-3-----3-3-----3-|-0-----0-0-----0-|-0-----0-2-----2-|-----------------|
B||------------------|-----------------|-----------------|-----------------|
     E Q   E E Q   E   E Q   E E Q   E   E Q   E E Q   E   E Q   E E Q   E 

G|---4-----|-----------------|-----------------|-----------------|-----------------|
D|---------|-----------------|-----------------|-----------------|-----------------|
A|-2-------|---6-------6-----|---6-------6-----|---6-------6-----|---6-------6-----|
E|---------|-----------------|-----------------|-----------------|-----------------|
B|-------2-|-4-------4-------|-4-------4-------|-4-------4-------|-4-------4-------|
   E Q   E   E Q.    E Q.      E Q.    E Q.      E Q.    E Q.      E Q.    E Q.

G|-----------------|-----------------|-----------------|-----------------|
D|-----------------|-----------------|-----------------|-----------------|
A|-2-------------2-|(2)------------2-|(2)--------------|-----------6-----|
E|-----4---2-2-4---|-----4---2-2-4---|-----4---2-2-4---|-----------------|
B|-----------------|-----------------|-----------------|-4---4---4---4---|
   Q   Q   E E E E   Q   Q   E E E E   Q   Q   E E E E   E E E E E E E E

G|-----------------|-----------------|---7-------7-----|---7-------------|
D|---5-------5-----|---5-------------|-----------------|---------4-------|
A|-----------------|-----------------|-5-----5-5-----5-|-5-----7---------|
E|-3-----3-3-----3-|-3-----3-5-----5-|-----------------|-----------------|
B|-----------------|-----------------|-----------------|-----------------|
   E Q   E E Q   E   E Q   E Q   E E   E Q   E E Q   E   E Q   E H

G|-----------------|-----------------|-----------------|---------|
D|---4-------4-----|---4-------4-----|---4-------4-----|---4-----|
A|-----------------|-----------------|-----------------|---------|
E|-2-----2-2-----2-|-2-----2-2-----2-|-2-----2-2-----2-|-2-----2-|
B|-----------------|-----------------|-----------------|---------|
   E Q   E E Q   E   E Q   E Q   E E   E Q   E E Q   E   E Q   E

G|-----------------|-----------------|-----------------|-----------------|
D|-----------------|-----------------|-----------------|-----------------|
A|-5---2---0-0-2-5-|(5)--2---0-0-2-0-|-5---2---0-0-2-5-|(5)--2---0-0-2-5-|
E|-----------------|-----------------|-----------------|-----------------|
B|-----------------|-----------------|-----------------|-----------------|
   Q   Q   E E E E   Q   Q   E E E E   Q   Q   E E E E   Q   Q   E E E E

G|-----------------|-----------------|---6-------6-----|---6-------------|
D|---4-------4-----|---4-------6-----|-----------------|-----------3-----|
A|-----------------|-----------------|-4-----4-4-----4-|-4-----4---------|
E|-2-----2-2-----2-|-2-----2-4-----4-|-----------------|---------1-----1-|
B|-----------------|-----------------|-----------------|-----------------|
   E Q   E E Q   E   E Q   E Q   E E   E Q   E E Q   E   E Q   E E Q   E

G|-----------------|-----------------|-----------------|---------|
D|---3-------3-----|---3-------3-----|---3-------3-----|---3-----|
A|-----------------|-----------------|-----------------|---------|
E|-1-----1-1-----1-|-1-----1-1-----1-|-1-----1-1-----1-|-1-----1-|
B|-----------------|-----------------|-----------------|---------|
   E Q   E E Q   E   E Q   E Q   E E   E Q   E E Q   E   E Q   E

G|-----------------|-----------------|-----------------|-----------------|
D|-----------------|-----------------|-----------------|-----------------|
A|-4-------------4-|(4)--------------|-4-------------4-|-----------------|
E|-----6---4-4-6---|-----6---4-4-6-4-|-----6---4-4-6---|-1---1---1-1-1---|
B|-----------------|-----------------|-----------------|-----------------|
   Q   Q   E E E E   Q   Q   E E E E   Q   Q   E E E E   Q   Q   E E E E

G|-----------------|-----------------|---9-------9-----|---9-------------|
D|---7-------7-----|---7-------9-----|-----------------|-----------------|
A|-----------------|-----------------|-7-----7-7-----7-|-7-----7---------|
E|-5-----5-5-----5-|-5-----5-7-----7-|-----------------|---------2-4-----|
B|-----------------|-----------------|-----------------|-----------------|
   E Q   E E Q   E   E Q   E Q   E E   E Q   E E Q   E   E Q   E E Q   E

G|-----------------|-----------------|-----------------|---------|
D|---6-------6-----|---6-------6-----|---6-------6-----|---6-----|
A|-----------------|-----------------|-----------------|---------|
E|-4-----4-4-----4-|-4-----4-4-----4-|-4-----4-4-----4-|-4-----4-|
B|-----------------|-----------------|-----------------|---------|
   E Q   E E Q   E   E Q   E Q   E E   E Q   E E Q   E   E Q   E

G|-----------------|-----------------|-----------------|-----------------|
D|-2-------------2-|(2)--------------|-2-------------2-|(2)--------------|
A|-----4---2-2-4---|-----4---2-2-4-2-|-----4---2-2-4---|-----4---2-2-4-2-|
E|-----------------|-----------------|-----------------|-----------------|
B|-----------------|-----------------|-----------------|-----------------|
   Q   Q   E E E E   Q   Q   E E E E   Q   Q   E E E E   Q   Q   E E E E

G|-----------------|-----------------|---8-------8-----|---8-----|
D|---6-------6-----|---6-------8-----|-----------------|---------|
A|-----------------|-----------------|-6-----6-6-----6-|-6-----6-|
E|-4-----4-4-----4-|-4-----4-6-----6-|-----------------|---------|
B|-----------------|-----------------|-----------------|---------|
   E Q   E E Q   E   E Q   E Q   E E   E Q   E E Q   E   E Q   E

G|-----------------|-----------------|-----------------|-----------------|
D|-------------5-5-|-------------5-5-|-------------5-5-|-----------------|
A|-----------------|-----------------|-----------------|-----------------|
E|---3---3---3-----|---3---3---3-----|---3---3---3-----|---3---3---3---3-|
B|-----------------|-----------------|-----------------|-----------------|
   E E E E E Q S S   E E E E E Q S S   E E E E E Q S S   E E E E E E E E

G|-----------------|-----------------|-----------------|------------------||
D|-1-------------1-|-1---------------|-1-------------1-|-1-------------1-o||
A|-----3---1-1-3---|-----3---1-1-3-1-|-----3---1-1-3---|-----3---1-1-3----||
E|-----------------|-----------------|-----------------|-----------------o||
B|-----------------|-----------------|-----------------|------------------||
   Q   Q   E E E E   Q   Q   E E E E   Q   Q   E E E E   Q   Q   E E E E

Outro

G|-----------------|-----------------|-----------------|---4-------4-----|
D|---5-------5-----|---2-------2-----|---2-------4-----|-----------------|
A|-----------------|-----------------|-----------------|-2-----2-2-----2-|
E|-3-----3-3-----3-|-0-----0-0-----0-|-0-----0-2-----2-|-----------------|
B|-----------------|-----------------|-----------------|-----------------|
     E Q   E E Q   E   E Q   E E Q   E   E Q   E E Q   E   E Q   E E Q   E 

G|---4-----|-----------------|-----------------|-----------------|-----------------|
D|---------|-----------------|-----------------|-----------------|-----------------|
A|-2-------|---6-------6-----|---6-------6-----|---6-------6-----|---6-----2-------|
E|---------|-----------------|-----------------|-----------------|-------------4---|
B|-------2-|-4-------4-------|-4-------4-------|-4-------4-------|-4---------------|
   E Q   E   E Q.    E Q.      E Q.    E Q.      E Q.    E Q.      E Q.    Q   Q

G|-----------------|-----------------|-----------------|-----------------|
D|-----------------|-----------------|-----------------|-----------5-----|
A|-------2---------|-------2---------|-----------------|---6-------------|
E|-2-2-4-------4---|-2-2-4-------4---|-2-2-4-----------|---------3-----3-|
B|-----------------|-----------------|---------4---4---|-4---4-----------|
   E E E Q.    Q     E E E Q.    Q     E E Q   E E E E   E E E E E Q   E

G|-----------------|-----------------|---7-------7-----|---7-------------|
D|---5-------5-----|---5-------------|-----------------|---------4-------|
A|-----------------|-----------------|-5-----5-5-----5-|-5-----7---------|
E|-3-----3-3-----3-|-3-----3-5-----5-|-----------------|-----------------|
B|-----------------|-----------------|-----------------|-----------------|
   E Q   E E Q   E   E Q   E Q   E E   E Q   E E Q   E   E Q   E H

G|-----------------|-----------------|-----------------||
D|---4-------4-----|---4-------4-----|---4-------------||
A|-----------------|-----------------|-----------------||
E|-2-----2-2-----2-|-2-----2-2-----2-|-2-----2---------||
B|-----------------|-----------------|-----------------||
   E Q   E E Q   E   E Q   E Q   E E   E Q   E H


Key to rhythm notations:

W - Whole Note/Semi-Brieve
H - Half Note/Minim
Q - Quarter Note/Crotchet       Q. - Dotted Quarter Note
E - Eight Note/Quaver           E. - Dotted Eight Note
S - Sixteenth Note/Semi-Quaver  S. - Dotted Sixteenth Note
Suggest correction
Give kudos to tab author, rate the tab!
1 2 3 4 5
comments
print report bad tab
guest
You may want to rate the tab now too:
select rating
Wanna post a correction for this tab? Suggest correction