Oops, an error
Loading. Please wait.

Perfect Waves Tab

version 1
version 1

Whole song

Interactive

13,950 views 1 this week
3 commentsread comments
1 2 3 4 5
accurate
x 7
add to favorites
launch autoscroll
font size
0
reset
how to read this tab
guitar tuner
Autoscroll
slow
fast
+/-
esc
set tempo
stop
Help us to improve Ultimate-Guitar.com Take our survey!
×

I want this tab!

Sorry, this artist has told us we can not show this tab.

Help us change their mind!
Tell us why you want to learn this song or why it is important to you, and
we will share these directly with the artist or their representative.
Your words and your story can make a difference. It works!

To understand more on what is happening, please read this article:
Why Songs on Ultimate Guitar Are Licensed (time to read: 1 minute)

comments
print report bad tab
3 comments total.
0 reply
FingerstyleWood 10 wrote on October 23 2008, 07:54 pm

Hey dude, great intro, the reason i give a 4 is because its not finished, give me more and i will change to 5

+1 reply
blomkaal 10 wrote on January 25 2009, 01:57 pm

As far as I can tell, it goes on something like this:

e|---14p12-14---------------12--10------9~~~
B|-----------------------10--------12--12^14
G|---------------------9--------------------
D|-------------9-11-12----------------------
A|------------------------------------------
E|------------------------------------------

0 reply
9RockaholiC9 41 wrote on August 14 2010, 07:02 am

The intro is correct as far as I know, this is what comes next in my opinion. I'm not really sure about the last notes, this is just how I play it.

e|-14p12-14---------10-12/14-12--10-----12----
B|---------------12-----------------12--12^14-
G|------------11------------------------------
D|----------9---------------------------------
A|--------------------------------------------
E|--------------------------------------------

e|---------------------------------------------
B|-12-10------------10-------------------------
G|-------11-9----------------------------------
D|------------10/11----------------------------
A|---------------------------------------------
E|---------------------------------------------

guest
You may want to rate the tab now too:
select rating
Wanna post a correction for this tab? Suggest correction