Oops, an error
Loading. Please wait.

Change tab

52 views 1 this week
no commentswrite comment
1 2 3 4 5
3 more votes to show rating
add to favorites
×
Save as Personal and add changes to this tab that will be seen only by you. Learn more ›
×
You can save this tab as Personal to edit and correct it or add notes. All changes will be seen only by you. Learn more »
launch autoscroll
font size
0
reset
how to read this tab
guitar tuner
edit
Autoscroll
slow
fast
+/-
esc
set tempo
stop
Author
Difficulty
[Intro]

  G1
e|----------------|----------------|----------------|----------------|
B|----------------|----------------|----------------|----------------|
G|----------------|----------------|----------------|----------------|
D|--8-----------8-|----------------|--6-----------6-|----------------|
A|6-----------6---|----------------|4-----------4---|----------------|
E|----------------|----------------|----------------|----------------|
 |G2
e|----------------|----------------|----------------|----------------|
B|----------------|----------------|----------------|----------------|
G|----------------|----------------|----------------|----------------|
D|6---------------|----------------|4---------------|----------------|
A|6---------------|----------------|4---------------|----------------|
E|4---------------|----------------|2---------------|----------------|


e|----------------|----------------|----------------|----------------|
B|----------------|----------------|----------------|----------------|
G|----------------|----------------|----------------|----------------|
D|----------------|----------------|--6-----------6-|----------------|
A|--6---------7---|----------------|4-----------4---|----------------|
E|9-------------7-|----------------|----------------|----------------|
 |
e|----------------|----------------|----------------|----------------|
B|----------------|----------------|----------------|----------------|
G|----------------|----------------|----------------|----------------|
D|2---------------|----------------|4---------------|----------------|
A|2---------------|----------------|4---------------|----------------|
E|0---------------|----------------|2---------------|----------------|


e|----------------|----------------|----------------|----------------|
B|----------------|----------------|----------------|----------------|
G|8---------------|----------------|6---------------|----------------|
D|----------------|----------------|----------------|----------------|
A|6---------------|----------------|4---------------|----------------|
E|----------------|----------------|----------------|----------------|
 |
e|----------------|----------------|----------------|----------------|
B|----------------|----------------|----------------|----------------|
G|----------------|----------------|----------------|----------------|
D|6---------------|----------------|4---------------|----------------|
A|6---------------|----------------|4---------------|----------------|
E|4---------------|----------------|2---------------|----------------|


e|----------------|----------------|----------------|----------------|
B|----------------|----------------|----------------|----------------|
G|9---------------|----------------|6---------------|----------------|
D|----------------|----------------|----------------|----------------|
A|7---------------|----------------|4---------------|----------------|
E|----------------|----------------|----------------|----------------|
 |
e|----------------|----------------|----------------|----------------|
B|----------------|----------------|----------------|----------------|
G|----------------|----------------|----------------|----------------|
D|2---------------|----------------|4---------------|----------------|
A|2---------------|----------------|4---------------|----------------|
E|0---------------|----------------|2---------------|----------------|


[Instrumental Verse]

e|----------------|----------------|----------------|----------------|
B|----------------|----------------|----------------|----------------|
G|8---------------|----------------|6---------------|----------------|
D|----------------|----------------|----------------|----------------|
A|6---------------|----------------|4---------------|----------------|
E|----------------|----------------|----------------|----------------|
 |
e|----------------|----------------|----------------|----------------|
B|----------------|----------------|----------------|----------------|
G|----------------|----------------|----------------|----------------|
D|6---------------|----------------|4---------------|----------------|
A|6---------------|----------------|4---------------|----------------|
E|4---------------|----------------|2---------------|----------------|


e|----------------|----------------|----------------|----------------|
B|----------------|----------------|----------------|----------------|
G|9---------------|----------------|8br~------------|----------------|
D|----------------|----------------|----------------|----------------|
A|7---------------|----------------|6br~------------|----------------|
E|----------------|----------------|----------------|----------------|
 |
e|----------------|----------------|----------------|----------------|
B|----------------|----------------|----------------|----------------|
G|----------------|----------------|----------------|----------------|
D|2---------------|----------------|4---------------|----------------|
A|2---------------|----------------|4---------------|----------------|
E|0---------------|----------------|2---------------|----------------|


e|----------------|----------------|----------------|----------------|
B|----------------|----------------|----------------|----------------|
G|8---------------|----------------|6---------------|----------------|
D|----------------|----------------|----------------|----------------|
A|6---------------|----------------|4---------------|----------------|
E|----------------|----------------|----------------|----------------|
 |
e|----------------|----------------|----------------|----------------|
B|----------------|----------------|----------------|----------------|
G|----------------|----------------|----------------|----------------|
D|6---------------|----------------|4---------------|----------------|
A|6---------------|----------------|4---------------|----------------|
E|4---------------|----------------|2---------------|----------------|


e|----------------|----------------|----------------|----------------|
B|----------------|----------------|----------------|----------------|
G|9---------------|----------------|8br~------------|----------------|
D|----------------|----------------|----------------|----------------|
A|7---------------|----------------|6br~------------|----------------|
E|----------------|----------------|----------------|----------------|
 |
e|----------------|----------------|----------------|----------------|
B|----------------|----------------|----------------|----------------|
G|----------------|----------------|----------------|----------------|
D|2---------------|----------------|4---------------|----------------|
A|2---------------|----------------|4---------------|----------------|
E|0---------------|----------------|2---------------|----------------|


[Instrumental Chorus]

e|----------------|----------------|----------------|----------------|
B|----------------|----------------|----------------|----------------|
G|6/8---------6/8~|----------------|11----13----8---|----------------|
D|----------------|----------------|----------------|----------------|
A|4/6---------4/6~|----------------|9-----11----6---|----------------|
E|----------------|----------------|----------------|----------------|
 |
e|----------------|----------------|----------------|----------------|
B|----------------|----------------|----------------|----------------|
G|----------------|----------------|----------------|----------------|
D|6---------------|----------------|4---------------|----------------|
A|6---------------|----------------|4---------------|----------------|
E|4---------------|----------------|2---------------|----------------|


e|----------------|----------------|----------------|----------------|
B|----------------|----------------|----------------|----------------|
G|6/8---------6/8~|----------------|11----13----8---|----------------|
D|----------------|----------------|----------------|----------------|
A|4/6---------4/6~|----------------|9-----11----6---|----------------|
E|----------------|----------------|----------------|----------------|
 |
e|----------------|----------------|----------------|----------------|
B|----------------|----------------|----------------|----------------|
G|----------------|----------------|----------------|----------------|
D|2---------------|----------------|4---------------|----------------|
A|2---------------|----------------|4---------------|----------------|
E|0---------------|----------------|2---------------|----------------|


e|----------------|----------------|----------------|----------------|
B|----------------|----------------|----------------|----------------|
G|6/8---------6/8~|----------------|11----13----8---|----------------|
D|----------------|----------------|----------------|----------------|
A|4/6---------4/6~|----------------|9-----11----6---|----------------|
E|----------------|----------------|----------------|----------------|
 |
e|----------------|----------------|----------------|----------------|
B|----------------|----------------|----------------|----------------|
G|----------------|----------------|----------------|----------------|
D|6---------------|----------------|4---------------|----------------|
A|6---------------|----------------|4---------------|----------------|
E|4---------------|----------------|2---------------|----------------|


e|----------------|----------------|----------------|----------------|
B|----------------|----------------|----------------|----------------|
G|6/8---------6/8~|----------------|11----13----6---|----------------|
D|----------------|----------------|----------------|----------------|
A|4/6---------4/6~|----------------|9-----11----4---|----------------|
E|----------------|----------------|----------------|----------------|
 |
e|----------------|----------------|----------------|----------------|
B|----------------|----------------|----------------|----------------|
G|----------------|----------------|----------------|----------------|
D|2---------------|----------------|4---------------|----------------|
A|2---------------|----------------|4---------------|----------------|
E|0---------------|----------------|2---------------|----------------|


[Verse]

e|----------------|----------------|----------------|----------------|
B|----------------|----------------|----------------|----------------|
G|8---------------|----------------|6---------------|----------------|
D|----------------|----------------|----------------|----------------|
A|6---------------|----------------|4---------------|----------------|
E|----------------|----------------|----------------|----------------|
 |
e|----------------|----------------|----------------|----------------|
B|----------------|----------------|----------------|----------------|
G|----------------|----------------|----------------|----------------|
D|6---------------|----------------|4---------------|----------------|
A|6---------------|----------------|4---------------|----------------|
E|4---------------|----------------|2---------------|----------------|


e|----------------|----------------|----------------|----------------|
B|----------------|----------------|----------------|----------------|
G|9---------------|----------------|8br~------------|----------------|
D|----------------|----------------|----------------|----------------|
A|7---------------|----------------|6br~------------|----------------|
E|----------------|----------------|----------------|----------------|
 |
e|----------------|----------------|----------------|----------------|
B|----------------|----------------|----------------|----------------|
G|----------------|----------------|----------------|----------------|
D|2---------------|----------------|4---------------|----------------|
A|2---------------|----------------|4---------------|----------------|
E|0---------------|----------------|2---------------|----------------|


e|----------------|----------------|----------------|----------------|
B|----------------|----------------|----------------|----------------|
G|8---------------|----------------|6---------------|----------------|
D|----------------|----------------|----------------|----------------|
A|6---------------|----------------|4---------------|----------------|
E|----------------|----------------|----------------|----------------|
 |
e|----------------|----------------|----------------|----------------|
B|----------------|----------------|----------------|----------------|
G|----------------|----------------|----------------|----------------|
D|6---------------|----------------|4---------------|----------------|
A|6---------------|----------------|4---------------|----------------|
E|4---------------|----------------|2---------------|----------------|


e|----------------|----------------|----------------|----------------|
B|----------------|----------------|----------------|----------------|
G|9---------------|----------------|8br~------------|----------------|
D|----------------|----------------|----------------|----------------|
A|7---------------|----------------|6br~------------|----------------|
E|----------------|----------------|----------------|----------------|
 |
e|----------------|----------------|----------------|----------------|
B|----------------|----------------|----------------|----------------|
G|----------------|----------------|----------------|----------------|
D|2---------------|----------------|4---------------|----------------|
A|2---------------|----------------|4---------------|----------------|
E|0---------------|----------------|2---------------|----------------|


[Chorus]

e|----------------|----------------|----------------|----------------|
B|----------------|----------------|----------------|----------------|
G|6/8---------6/8~|----------------|11----13----8---|----------------|
D|----------------|----------------|----------------|----------------|
A|4/6---------4/6~|----------------|9-----11----6---|----------------|
E|----------------|----------------|----------------|----------------|
 |
e|----------------|----------------|----------------|----------------|
B|----------------|----------------|----------------|----------------|
G|----------------|----------------|----------------|----------------|
D|6---------------|----------------|4---------------|----------------|
A|6---------------|----------------|4---------------|----------------|
E|4---------------|----------------|2---------------|----------------|


e|----------------|----------------|----------------|----------------|
B|----------------|----------------|----------------|----------------|
G|6/8---------6/8~|----------------|11----13----8---|----------------|
D|----------------|----------------|----------------|----------------|
A|4/6---------4/6~|----------------|9-----11----6---|----------------|
E|----------------|----------------|----------------|----------------|
 |
e|----------------|----------------|----------------|----------------|
B|----------------|----------------|----------------|----------------|
G|----------------|----------------|----------------|----------------|
D|2---------------|----------------|4---------------|----------------|
A|2---------------|----------------|4---------------|----------------|
E|0---------------|----------------|2---------------|----------------|


e|----------------|----------------|----------------|----------------|
B|----------------|----------------|----------------|----------------|
G|6/8---------6/8~|----------------|11----13----8---|----------------|
D|----------------|----------------|----------------|----------------|
A|4/6---------4/6~|----------------|9-----11----6---|----------------|
E|----------------|----------------|----------------|----------------|
 |
e|----------------|----------------|----------------|----------------|
B|----------------|----------------|----------------|----------------|
G|----------------|----------------|----------------|----------------|
D|6---------------|----------------|4---------------|----------------|
A|6---------------|----------------|4---------------|----------------|
E|4---------------|----------------|2---------------|----------------|


e|----------------|----------------|----------------|----------------|
B|----------------|----------------|----------------|----------------|
G|6/8---------6/8~|----------------|11----13----6---|----------------|
D|----------------|----------------|----------------|----------------|
A|4/6---------4/6~|----------------|9-----11----4---|----------------|
E|----------------|----------------|----------------|----------------|
 |
e|----------------|----------------|----------------|----------------|
B|----------------|----------------|----------------|----------------|
G|----------------|----------------|----------------|----------------|
D|2---------------|----------------|4---------------|----------------|
A|2---------------|----------------|4---------------|----------------|
E|0---------------|----------------|2---------------|----------------|


[Verse]

e|----------------|----------------|----------------|----------------|
B|----------------|----------------|----------------|----------------|
G|8---------------|----------------|6---------------|----------------|
D|----------------|----------------|----------------|----------------|
A|6---------------|----------------|4---------------|----------------|
E|----------------|----------------|----------------|----------------|
 |
e|----------------|----------------|----------------|----------------|
B|----------------|----------------|----------------|----------------|
G|----------------|----------------|----------------|----------------|
D|6---------------|----------------|4---------------|----------------|
A|6---------------|----------------|4---------------|----------------|
E|4---------------|----------------|2---------------|----------------|

                                                                      
e|----------------|----------------|----------------|----------------|
B|----------------|----------------|----------------|----------------|
G|9---------------|----------------|8br~------------|----------------|
D|----------------|----------------|----------------|----------------|
A|7---------------|----------------|6br~------------|----------------|
E|----------------|----------------|----------------|----------------|
 |
e|----------------|----------------|----------------|----------------|
B|----------------|----------------|----------------|----------------|
G|----------------|----------------|----------------|----------------|
D|2---------------|----------------|4---------------|----------------|
A|2---------------|----------------|4---------------|----------------|
E|0---------------|----------------|2---------------|----------------|


e|----------------|----------------|----------------|----------------|
B|----------------|----------------|----------------|----------------|
G|13--------------|----------------|11--------------|----------------|
D|----------------|----------------|----------------|----------------|
A|11--------------|----------------|9---------------|----------------|
E|----------------|----------------|----------------|----------------|
 |
e|----------------|----------------|----------------|----------------|
B|----------------|----------------|----------------|----------------|
G|----------------|----------------|----------------|----------------|
D|6---------------|----------------|4---------------|----------------|
A|6---------------|----------------|4---------------|----------------|
E|4---------------|----------------|2---------------|----------------|


e|----------------|----------------|----------------|----------------|
B|----------------|----------------|----------------|----------------|
G|9---------------|----------------|8br~------------|----------------|
D|----------------|----------------|----------------|----------------|
A|7---------------|----------------|6br~------------|----------------|
E|----------------|----------------|----------------|----------------|
 |
e|----------------|----------------|----------------|----------------|
B|----------------|----------------|----------------|----------------|
G|----------------|----------------|----------------|----------------|
D|2---------------|----------------|4---------------|----------------|
A|2---------------|----------------|4---------------|----------------|
E|0---------------|----------------|2---------------|----------------|


[Chorus]

e|----------------|----------------|----------------|----------------|
B|----------------|----------------|----------------|----------------|
G|6/8---------6/8~|----------------|11----13----8---|----------------|
D|----------------|----------------|----------------|----------------|
A|4/6---------4/6~|----------------|9-----11----6---|----------------|
E|----------------|----------------|----------------|----------------|
 |
e|----------------|----------------|----------------|----------------|
B|----------------|----------------|----------------|----------------|
G|----------------|----------------|----------------|----------------|
D|6---------------|----------------|4---------------|----------------|
A|6---------------|----------------|4---------------|----------------|
E|4---------------|----------------|2---------------|----------------|


e|----------------|----------------|----------------|----------------|
B|----------------|----------------|----------------|----------------|
G|6/8---------6/8~|----------------|11----13----8---|----------------|
D|----------------|----------------|----------------|----------------|
A|4/6---------4/6~|----------------|9-----11----6---|----------------|
E|----------------|----------------|----------------|----------------|
 |
e|----------------|----------------|----------------|----------------|
B|----------------|----------------|----------------|----------------|
G|----------------|----------------|----------------|----------------|
D|2---------------|----------------|4---------------|----------------|
A|2---------------|----------------|4---------------|----------------|
E|0---------------|----------------|2---------------|----------------|


e|----------------|----------------|----------------|----------------|
B|----------------|----------------|----------------|----------------|
G|6/8---------6/8~|----------------|11----13----8---|----------------|
D|----------------|----------------|----------------|----------------|
A|4/6---------4/6~|----------------|9-----11----6---|----------------|
E|----------------|----------------|----------------|----------------|
 |
e|----------------|----------------|----------------|----------------|
B|----------------|----------------|----------------|----------------|
G|----------------|----------------|----------------|----------------|
D|6---------------|----------------|4---------------|----------------|
A|6---------------|----------------|4---------------|----------------|
E|4---------------|----------------|2---------------|----------------|


e|----------------|----------------|----------------|----------------|
B|----------------|----------------|----------------|----------------|
G|6/8---------6/8~|----------------|11----13----6---|----------------|
D|----------------|----------------|----------------|----------------|
A|4/6---------4/6~|----------------|9-----11----4---|----------------|
E|----------------|----------------|----------------|----------------|
 |
e|----------------|----------------|----------------|----------------|
B|----------------|----------------|----------------|----------------|
G|----------------|----------------|----------------|----------------|
D|2---------------|----------------|4---------------|----------------|
A|2---------------|----------------|4---------------|----------------|
E|0---------------|----------------|2---------------|----------------|


[Break]

e|----------------|----------------|----------------|----------------|
B|----------------|----------------|----------------|----------------|
G|8---------------|----------------|6---------------|----------------|
D|----------------|----------------|----------------|----------------|
A|6---------------|----------------|4---------------|----------------|
E|----------------|----------------|----------------|----------------|
 |
e|----------------|----------------|----------------|----------------|
B|----------------|----------------|----------------|----------------|
G|----------------|----------------|----------------|----------------|
D|6---------------|----------------|4---------------|----------------|
A|6---------------|----------------|4---------------|----------------|
E|4---------------|----------------|2---------------|----------------|


e|----------------|----------------|----------------|----------------|
B|----------------|----------------|----------------|----------------|
G|9---------------|----------------|8br~------------|----------------|
D|----------------|----------------|----------------|----------------|
A|7---------------|----------------|6br~------------|----------------|
E|----------------|----------------|----------------|----------------|
 |
e|----------------|----------------|----------------|----------------|
B|----------------|----------------|----------------|----------------|
G|----------------|----------------|----------------|----------------|
D|2---------------|----------------|4---------------|----------------|
A|2---------------|----------------|4---------------|----------------|
E|0---------------|----------------|2---------------|----------------|


e|----------------|----------------|----------------|----------------|
B|----------------|----------------|----------------|----------------|
G|8---------------|----------------|6---------------|----------------|
D|----------------|----------------|----------------|----------------|
A|6---------------|----------------|4---------------|----------------|
E|----------------|----------------|----------------|----------------|
 |
e|----------------|----------------|----------------|----------------|
B|----------------|----------------|----------------|----------------|
G|----------------|----------------|----------------|----------------|
D|6---------------|----------------|4---------------|----------------|
A|6---------------|----------------|4---------------|----------------|
E|4---------------|----------------|2---------------|----------------|


e|----------------|----------------|----------------|----------------|
B|----------------|----------------|----------------|----------------|
G|9---------------|----------------|8br~------------|----------------|
D|----------------|----------------|----------------|----------------|
A|7---------------|----------------|6br~------------|----------------|
E|----------------|----------------|----------------|----------------|
 |
e|----------------|----------------|----------------|----------------|
B|----------------|----------------|----------------|----------------|
G|----------------|----------------|----------------|----------------|
D|2---------------|----------------|4---------------|----------------|
A|2---------------|----------------|4---------------|----------------|
E|0---------------|----------------|2---------------|----------------|


[Verse]

e|----------------|----------------|----------------|----------------|
B|----------------|----------------|----------------|----------------|
G|8---------------|----------------|6---------------|----------------|
D|----------------|----------------|----------------|----------------|
A|6---------------|----------------|4---------------|----------------|
E|----------------|----------------|----------------|----------------|
 |
e|----------------|----------------|----------------|----------------|
B|----------------|----------------|----------------|----------------|
G|----------------|----------------|----------------|----------------|
D|6---------------|----------------|4---------------|----------------|
A|6---------------|----------------|4---------------|----------------|
E|4---------------|----------------|2---------------|----------------|

                                                                      
e|----------------|----------------|----------------|----------------|
B|----------------|----------------|----------------|----------------|
G|9---------------|----------------|8br~------------|----------------|
D|----------------|----------------|----------------|----------------|
A|7---------------|----------------|6br~------------|----------------|
E|----------------|----------------|----------------|----------------|
 |
e|----------------|----------------|----------------|----------------|
B|----------------|----------------|----------------|----------------|
G|----------------|----------------|----------------|----------------|
D|2---------------|----------------|4---------------|----------------|
A|2---------------|----------------|4---------------|----------------|
E|0---------------|----------------|2---------------|----------------|


e|----------------|----------------|----------------|----------------|
B|----------------|----------------|----------------|----------------|
G|13~-------------|----------------|11~-------------|----------------|
D|----------------|----------------|----------------|----------------|
A|11~-------------|----------------|9~--------------|----------------|
E|----------------|----------------|----------------|----------------|
 |
e|----------------|----------------|----------------|----------------|
B|----------------|----------------|----------------|----------------|
G|----------------|----------------|----------------|----------------|
D|6---------------|----------------|4---------------|----------------|
A|6---------------|----------------|4---------------|----------------|
E|4---------------|----------------|2---------------|----------------|


e|----------------|----------------|----------------|----------------|
B|----------------|----------------|----------------|----------------|
G|9~--------------|----------------|8br~------------|----------------|
D|----------------|----------------|----------------|----------------|
A|7~--------------|----------------|6br~------------|----------------|
E|----------------|----------------|----------------|----------------|
 |
e|----------------|----------------|----------------|----------------|
B|----------------|----------------|----------------|----------------|
G|----------------|----------------|----------------|----------------|
D|2---------------|----------------|4---------------|----------------|
A|2---------------|----------------|4---------------|----------------|
E|0---------------|----------------|2---------------|----------------|


[Chorus]

e|----------------|----------------|----------------|----------------|
B|----------------|----------------|----------------|----------------|
G|6/8---------6/8~|----------------|11----13----8---|----------------|
D|----------------|----------------|----------------|----------------|
A|4/6---------4/6~|----------------|9-----11----6---|----------------|
E|----------------|----------------|----------------|----------------|
 |
e|----------------|----------------|----------------|----------------|
B|----------------|----------------|----------------|----------------|
G|----------------|----------------|----------------|----------------|
D|6---------------|----------------|4---------------|----------------|
A|6---------------|----------------|4---------------|----------------|
E|4---------------|----------------|2---------------|----------------|


e|----------------|----------------|----------------|----------------|
B|----------------|----------------|----------------|----------------|
G|6/8---------6/8~|----------------|11----13----8---|----------------|
D|----------------|----------------|----------------|----------------|
A|4/6---------4/6~|----------------|9-----11----6---|----------------|
E|----------------|----------------|----------------|----------------|
 |
e|----------------|----------------|----------------|----------------|
B|----------------|----------------|----------------|----------------|
G|----------------|----------------|----------------|----------------|
D|2---------------|----------------|4---------------|----------------|
A|2---------------|----------------|4---------------|----------------|
E|0---------------|----------------|2---------------|----------------|


e|----------------|----------------|----------------|----------------|
B|----------------|----------------|----------------|----------------|
G|6/8---------6/8~|----------------|11----13----8---|----------------|
D|----------------|----------------|----------------|----------------|
A|4/6---------4/6~|----------------|9-----11----6---|----------------|
E|----------------|----------------|----------------|----------------|
 |
e|----------------|----------------|----------------|----------------|
B|----------------|----------------|----------------|----------------|
G|----------------|----------------|----------------|----------------|
D|6---------------|----------------|4---------------|----------------|
A|6---------------|----------------|4---------------|----------------|
E|4---------------|----------------|2---------------|----------------|


e|----------------|----------------|----------------|--------7---6---|
B|----------------|----------------|----------------|----------------|
G|6/8---------6/8~|----------------|11----13----6---|----------------|
D|----------------|----------------|----------------|--------9---8---|
A|4/6---------4/6~|----------------|9-----11----4---|----------------|
E|----------------|----------------|----------------|----------------|
 |
e|----------------|----------------|----------------|----------------|
B|----------------|----------------|----------------|----------------|
G|----------------|----------------|----------------|----------------|
D|2---------------|----------------|4---------------|----------------|
A|2---------------|----------------|4---------------|----------------|
E|0---------------|----------------|2---------------|----------------|


[Outro]

e|----------------|----------------|----------------|--------7---6---|
B|----------------|----------------|----------------|----------------|
G|8~--------------|----------------|11----13----8~--|----------------|
D|----------------|----------------|----------------|--------9---8---|
A|6~--------------|----------------|9-----11----6~--|----------------|
E|----------------|----------------|----------------|----------------|
 |
e|----------------|----------------|----------------|----------------|
B|----------------|----------------|----------------|----------------|
G|----------------|----------------|----------------|----------------|
D|6---------------|----------------|4---------------|----------------|
A|6---------------|----------------|4---------------|----------------|
E|4---------------|----------------|2---------------|----------------|


e|----------------|----------------|----------------|--------7---6---|
B|----------------|----------------|----------------|----------------|
G|8~--------------|----------------|11----13----6---|----------------|
D|----------------|----------------|----------------|--------9---8---|
A|6~--------------|----------------|9-----11----4---|----------------|
E|----------------|----------------|----------------|----------------|
 |
e|----------------|----------------|----------------|----------------|
B|----------------|----------------|----------------|----------------|
G|----------------|----------------|----------------|----------------|
D|2---------------|----------------|4---------------|----------------|
A|2---------------|----------------|4---------------|----------------|
E|0---------------|----------------|2---------------|----------------|


e|----------------|----------------|----------------|--------7---6---|
B|----------------|----------------|----------------|----------------|
G|8~--------------|----------------|11----13----8b~-|----------------|
D|----------------|----------------|----------------|--------9---8---|
A|6~--------------|----------------|9-----11----6b~-|----------------|
E|----------------|----------------|----------------|----------------|
 |
e|----------------|----------------|----------------|----------------|
B|----------------|----------------|----------------|----------------|
G|----------------|----------------|----------------|----------------|
D|6---------------|----------------|4---------------|----------------|
A|6---------------|----------------|4---------------|----------------|
E|4---------------|----------------|2---------------|----------------|


e|----------------|----------------|----------------|----------------|
B|----------------|----------------|----------------|----------------|
G|8~--------------|----------------|11----13----13gb|--pb13~---------|
D|----------------|----------------|----------------|----------------|
A|6~--------------|----------------|9-----11----11gb|--pb11~---------|
E|----------------|----------------|----------------|----------------|
 |
e|----------------|----------------|----------------|----------------|
B|----------------|----------------|----------------|----------------|
G|----------------|----------------|----------------|----------------|
D|2---------------|----------------|4---------------|----------------|
A|2---------------|----------------|4---------------|----------------|
E|0---------------|----------------|2---------------|----------------|


[End]
                                    Fade Out
e|----------------|----------------|----------------|----------------|
B|----------------|----------------|----------------|----------------|
G|pb13r-----------|12--------------|----------------|----------------|
D|----------------|----------------|----------------|----------------|
A|pb11r-----------|10--------------|----------------|----------------|
E|----------------|----------------|----------------|----------------|
 |                                  Fade Out
e|----------------|----------------|----------------|----------------|
B|----------------|----------------|----------------|----------------|
G|----------------|----------------|----------------|----------------|
D|6---------------|----------------|----------------|----------------|
A|6---------------|----------------|----------------|----------------|
E|4---------------|----------------|----------------|----------------|



**********************************
| /   Slide up
| ~   Vibrato
| b   Bend
| gb  Gradusl bend
| pb  Pre-bend
| r   Release bend
***********************************

            
            
Suggest correction
Creating personal tab
Creating personal tab
You can edit any tab online and save it as your Personal.

You can edit, replace or remove any tab part or add personal notes – all changes will be seen only by you.

Personal tabs can be accessed anytime from any device, even offline.
Learn more »
Give kudos to tab author, rate the tab!
1 2 3 4 5
comments
print report bad tab
guest
You may want to rate the tab now too:
select rating
Wanna post a correction for this tab? Suggest correction