Oops, an error
Loading. Please wait.

Finish Last tab

version 1
version 1

Whole song

2,147 views 1 this week
no commentswrite comment
1 2 3 4 5
2 more votes to show rating
add to favorites
×
Save as Personal and add changes to this tab that will be seen only by you. Learn more ›
×
You can save this tab as Personal to edit and correct it or add notes. All changes will be seen only by you. Learn more »
launch autoscroll
font size
0
reset
how to read this tab
guitar tuner
edit
Autoscroll
slow
fast
+/-
esc
set tempo
stop
Author
Difficulty
Finish Last
By Stellar Kart
Tabbed By schecter_dude


Intro And Chorus:( the strumming should be extremely easy to figure out. Just listen
to the song it it should be easy.)

E----------------------------------------------------------------------|
B----------------------------------------------------------------------|
G-9-9-9-9----9-9-9-9----9-9-9-9---8-6-8-6-8-6--------------------------|
D-9-9-9-9----9-9-9-9----9-9-9-9---7-7-7-7-7-7--------------------------|
A-7-7-7-7----x-x-x-x----x-x-x-x---x-x-x-x-x-x--------------------------|
E------------7-7-7-7----9-9-9-9---5-5-5-5-5-5--------------------------|

Verse:

E------------------------------------------------|
B------------------------------------------------|
G-9-9-9-9-9-9---9-9-9-9-9-9-9----8-6-8-6-8-6-----|
D-9-9-9-9-9-9---9-9-9-9-9-9-9----7-7-7-7-7-7-----|
A-7-7-7-7-7-7---x-x-x-x-x-x-x----x-x-x-x-x-x-----|
E---------------7-7-7-7-7-7-7----5-5-5-5-5-5-----|

Then Play Chorus, Verse 2,Chorus. The " Bridge" is the same as the verse. (duh)
Once again, the strumming should be easy to figure out. My guitar teacher helped
me tab this. He has been playing for close to 25 or so years.I think this is exactly
what they play. The only thing though, is i think Stellar Kart drops the strings
and plays them flat.Im not sure though. Joe
Suggest correction
Creating personal tab
Creating personal tab
You can edit any tab online and save it as your Personal.

You can edit, replace or remove any tab part or add personal notes – all changes will be seen only by you.

Personal tabs can be accessed anytime from any device, even offline.
Learn more »
Give kudos to tab author, rate the tab!
1 2 3 4 5
comments
print report bad tab
guest
You may want to rate the tab now too:
select rating
Wanna post a correction for this tab? Suggest correction