Oops, an error
Loading. Please wait.

Me And Jesus tab

version 3
version 3

Whole song

Interactive

1,458 views 3 this week
no commentswrite comment
1 2 3 4 5
3 more votes to show rating
add to favorites
×
Save as Personal and add changes to this tab that will be seen only by you. Learn more ›
×
You can save this tab as Personal to edit and correct it or add notes. All changes will be seen only by you. Learn more »
launch autoscroll
font size
0
reset
how to read this tab
guitar tuner
edit
Autoscroll
slow
fast
+/-
esc
set tempo
stop
Difficulty
intermediate
Stellar Kart
Me And Jesus
We Can't Stand Sitting Down
2009

(1st Half Of Verse One) (Acoustic)
e|-----------------------------------------------------|
B|-----------------------------------------------------|
G|--------6-----5-----6-----------6-----5-----6--------|
D|-----6-----6-----6-----6-----6-----6-----6-----6-----|
A|--4-----------------------4--------------------------|
E|-----------------------------------------------------|

e|-----------------------------------------------------|
B|-----------------------------------------------------|
G|--------6-----5-----6-----------6-----5-----6--------|
D|-----6-----6-----6-----6-----6-----6-----6-----6-----|
A|-----------------------------------------------------|
E|--2-----------------------2--------------------------|

e|-----------------------------------------------------|
B|-----------------------------------------------------|
G|--------6-----5-----6-----------6-----5-----6--------|
D|-----6-----6-----6-----6-----6-----6-----6-----6-----|
A|-----------------------------------------------------|
E|--6-----------------------4--------------------------|

(2nd Half Of Verse One) 
e|-----------------------------------------------------|
B|-----------------------------------------------------|
G|--------6-----5-----6-----------6-----5-----6--------|
D|-----6-----6-----6-----6-----6-----6-----6-----6-----|
A|--4-----------------------4--------------------------|
E|-----------------------------------------------------|

e|-----------------------------------------------------|
B|-----------------------------------------------------|
G|--------6-----5-----6-----------6-----5-----6--------|
D|-----6-----6-----6-----6-----6-----6-----6-----6-----|
A|-----------------------------------------------------|
E|--2-----------------------2--------------------------|

e|-----------------------------------------------------|
B|-----------------------------------------------------|
G|--------6-----5-----6-----------6-----5-----6--------|
D|-----6-----6-----6-----6-----6-----6-----6-----6-----|
A|-----------------------------------------------------|
E|--6-----------------------6--------------------------|

e|-----------------------------------------------------|
B|-----------------------------------------------------|
G|--------6-----5-----6-----------6-----5-----5--------|
D|-----6-----6-----6-----6-----6-----6-----6-----6-----|
A|-----------------------------------------------------|
E|--4-----------------------4--------------------------|

(Guitar Two Verse One) (Clean)
e|-----------------------------------------------------|
B|-----------------------------------------------------|
G|--6)-------------------------------------------------|
D|--6)---4)---8)---6)-----------x2---------------------|
A|--4)---4)---8)---6)----------------------------------|
E|-------2)---6)---4)----------------------------------|

(Both Guitars Chorus) (Distortion)
e|-----------------------------------------------------|
B|-----------------------------------------------------|
G|-------6)--------------------------------------------|
D|--4)---6)---6)---9)-8)------x2------4)---------------|
A|--4)---4)---6)---9)-8)--------------4)---------------|
E|--2)--------4)---7)-8)--------------2)---------------|

(Play Second Half Of Verse One For Verse Two) (Clean)

(Both Guitars Chorus) (Distortion)

(Both Guitars Bridge) (Distortion)
e|-----------------------------------------------------|
B|-----------------------------------------------------|
G|-----------------6)----------------------------------|
D|--4)---6)---4)---6)---------x2-----------------------|
A|--4)---6)---4)---4)----------------------------------|
E|--2)---4)---2)---------------------------------------|

(Guitar Two Plays Chorus Riff) (Distortion)

(Guitar One Solo) (Distortion)
e|-----------------------------------------------------|
B|-----------------------------------------------------|
G|-----------------------------------------------------|
D|----------------------6)-----------------------------|
A|--8h9-8-6-8h9-8h9-8-6-6)-----------------------------|
E|----------------------4)--9-9-9-9-8-8-8-8------------|

(Piano Chorus)
//(Both Guitars Chorus) (Distortion)
(Piano Outro)

            
            
Suggest correction
Creating personal tab
Creating personal tab
You can edit any tab online and save it as your Personal.

You can edit, replace or remove any tab part or add personal notes – all changes will be seen only by you.

Personal tabs can be accessed anytime from any device, even offline.
Learn more »
Give kudos to tab author, rate the tab!
1 2 3 4 5
comments
print report bad tab
guest
Wanna post a correction for this tab? Suggest correction