Oops, an error
Loading. Please wait.

My Coco Tab

version 1
version 1

Whole song

Interactive

3,595 views 3 this week
1 commentread comment
1 2 3 4 5
excellent!
x 6
add to favorites
launch autoscroll
font size
0
reset
how to read this tab
guitar tuner
Tab Pro tools
  • play this tab
  • loop segment
  • change instrument
  • show fretboard
  • metronome
×
Best way to learn
"My Coco"
Autoscroll
slow
fast
+/-
esc
set tempo
stop
Contributor
Stellastarr* - My Coco (Album version)
(Standard tuning)

Tabbed By James McLafferty
j_mclafferty@yahoo.co.uk

Chords
F    - 1332xx
Bb5  - x133xx
D5   - x577xx
C5   - x355xx
A5   - x022xx

Mute - xxxxxx 


Gtr1 - Shawn
Gtr2 - Michael
Bass - Amanda

Fig 1

Gtr2 w/heavy delay
    F                                 Bb5
E  :----------------|----------------|----------------|----------------|
B  :----------------|----------------|----------------|----------------|
G  :----------------|----------------|----------------|----------------|
D  :----3-------3---|----3-------3---|----3-------3---|----3-----------|
A  :----------------|--------------0-|1-1---1-1-1---1-|----------1-1-0-|
E  :1-1---1-1-1---1-|1-1---1-1-1-----|----------------|3-3---3-3-------|

Gtr2 plays fig 1, 4 times, then Gtr1 joins in with chords indicated above.
It is just these two chords throughout all verses and choruses



Bass fig 1
G  :----------------|----------------|----------------|----------------|
D  :----------------|----------------|----------------|----------------|
A  :----------------|--------------0-|1---1-1---1-1-1-|----------1-1-0-|
E  :1---1-1---1---1-|1---1---1-1-1---|----------------|3---3-3-3-------|

This is the main bass fig that runs through the verses, both guitars just strum
the "mute" chord throughout the verses. Gtr2 is using a Phaser.

Solo 1 (2:00)
Gtr 2

E  :----------------|----------------|--------------------|
B  :1--1-1-1-----1--|1-1-1-----3--3-3|--3--3-3-3-3-/--(15)|
G  :---------3-2----|------3-2-------|--------------------|
D  :----------------|----------------|--------------------|
A  :----------------|----------------|--------------------|
E  :----------------|----------------|--------------------|


Solo 2 (2:40)

    D5                    Bb5
E  :--5---5---6---5---5/-|---12----12----13----12----12\-|
B  :6---6---6---6---6--/-|13----13----13----13----13---\-|
G  :---------------------|-------------------------------|
D  :---------------------|-------------------------------|
A  :---------------------|-------------------------------|
E  :---------------------|-------------------------------|

    D5                    C5
E  :--5---5---6---5---5/-|8-8-8-8-/10-10-10-10-/12-12-12-12-/13-13-13-13|
B  :6---6---6---6---6----|----------------------------------------------|
G  :---------------------|----------------------------------------------|
D  :---------------------|----------------------------------------------|
A  :---------------------|----------------------------------------------|
E  :---------------------|----------------------------------------------|

E  :/15---------------|
B  :------------------|
G  :------------------|
D  :------------------|
A  :------------------|
E  :------------------|


Solo 3 (2:56) - Please note: the solo on the single/video version has 
                been edited to make it shorter.

(solo chord progression is F then A5, one bar of each. The chord you hear shawn strike
is the A5, on each odd bar)

E  :----------------------|
B  :----------------------|
G  :----------------------|
D  :3-3-3-3-3-3-3-3-3-3-2-|
A  :----------------------|
E  :----------------------|
play this bar 7 times then

E  :--------------------|--------------------|--------------------|
B  :--------------------|--------------------|--------------------|
G  :--------------------|--------------------|--------------------|
D  :3-3-3-3-3-3-3-2-3-5-|3-3-3-3-3-3-3-2---2-|3-3-3-3-3-3-3-2---2-|
A  :--------------------|----------------3---|----------------3---|
E  :--------------------|--------------------|--------------------|

E  :--------------------|--------------------|------------------|
B  :--------------------|--------------------|------------------|
G  :--------------------|--------------------|------------------|
D  :3-3-3-3-3-3-3-2---2-|3-3-3-3-3-3-3-2-3-5-|5-5-5-5-5-3-2-3---|
A  :----------------3---|--------------------|------------------|
E  :--------------------|--------------------|------------------|

E  :------------------|------------------|-------------------|
B  :------------------|------------------|-------------------|
G  :------------------|2-2-2-2-2-0---0---|3-3-3-3-3-2-0-2--/-|
D  :5-5-5-5-5-3-2-3---|------------3-----|-------------------|
A  :------------------|------------------|-------------------|
E  :------------------|------------------|-------------------|

E  :----------------------------|----------------------------|
B  :----------------------------|----------------------------|
G  :10-10-10-10-10-10-10-9----9-|10-10-10-10-10-10-10-9----9-|
D  :-----------------------10---|-----------------------10---|
A  :----------------------------|----------------------------|
E  :----------------------------|----------------------------|

E  :----------------------------|-----------------------------|
B  :----------------------------|-----------------------------|
G  :10-10-10-10-10-10-10-9----9-|10-10-10-10-10-10-10-9-10-12-|
D  :-----------------------10---|-----------------------------|
A  :----------------------------|-----------------------------|
E  :----------------------------|-----------------------------|

E  :--------------------------|--------------------------|
B  :10-10-10-10-10----13------|10-10-10-10-10----13------|
G  :---------------10----12---|---------------10----12---|
D  :--------------------------|--------------------------|
A  :--------------------------|--------------------------|
E  :--------------------------|--------------------------|

E  :--------------------------|---------------------------|
B  :10-10-10-10-10----13------|10-10-10-10-10-13-13-13-13-|
G  :---------------10----12---|---------------------------|
D  :--------------------------|---------------------------|
A  :--------------------------|---------------------------|
E  :--------------------------|---------------------------|

E  :------------------------------|------------------------------|
B  :13-13-13-13-13-13-13-13-10----|13-13-13-13-13-13-13-13-10----|
G  :---------------------------12-|---------------------------12-|
D  :------------------------------|------------------------------|
A  :------------------------------|------------------------------|
E  :------------------------------|------------------------------|

E  :------------------------------|-------------------------------|
B  :13-13-13-13-13-13-13-13-10----|13-13-13-13-13-13-13-/15-15-15-|
G  :---------------------------12-|-------------------------------|
D  :------------------------------|-------------------------------|
A  :------------------------------|-------------------------------|
E  :------------------------------|-------------------------------|

E  :13-13-13-13-13-13-13-15-15---|13-13-13-13-13-13-13-15-15---|
B  :13-13-13-13-13-13-13-13-13---|13-13-13-13-13-13-13-13-13---|
G  :-----------------------------|-----------------------------|
D  :-----------------------------|-----------------------------|
A  :-----------------------------|-----------------------------|
E  :-----------------------------|-----------------------------|

E  :17-17-17-17-17-17-17-17-17-17-17-17|17-17-17-17-17-17-17-17\-----|
B  :17-17-17-17-17-17-17-17-17-17-17-17|17-17-17-17-17-17-17-17\-----|
G  :-----------------------------------|-----------------------------|
D  :-----------------------------------|-----------------------------|
A  :-----------------------------------|-----------------------------|
E  :-----------------------------------|-----------------------------|

After this it is just fig 1 and verse chords until end.

Please e-mail me and let me know what you think.
comments
print report bad tab
1 comment total.
-1 reply
coldfry1 wrote on February 7 2008, 11:56 pm

awesome awesome awesome. solo is my favorite part. 5 stars. good job!

I want to post or [tab]
guest
You may want to rate the tab now too:
select rating
Please do not post tabs as comments. Select "correction" instead!