Oops, an error
Loading. Please wait.

Somewhere Across Forever bass

247 views 1 this week
2 commentsread comments
1 2 3 4 5
1 last vote to show rating
add to favorites
×
Save as Personal and add changes to this tab that will be seen only by you. Learn more ›
×
You can save this tab as Personal to edit and correct it or add notes. All changes will be seen only by you. Learn more »
launch autoscroll
font size
0
reset
guitar tuner
edit
Autoscroll
slow
fast
+/-
esc
set tempo
stop
Author
Difficulty
So, I tried to get out the counts for the harder rhythms, but the alignment might have 
messed up on the site.  It should go back to the right way if you copy the tabs and paste 
onto Word in a 'courier new' font.  Nothing's too bad though, if you have trouble just
turn up the bass and listen to the beat, or if it gets too hard just play straight eigth 
except for the solo.

Enter with drums (0:07)

Verse:
   1+2 +3+4+ 1+2+3+4+
G|---------------------------|
D|---------------------------|
A|---------------------------|     x4
E|-1~1~33336~~5656565--------|

Chorus:
G|-------------------------------------|
D|-------------------------------------|
A|-88888888----------------------------|     x2
E|----------88888888-6666-666-88888888-|

Play Verse 4 times

Play Chorus 4 times

Bridge:
G|-------------------------------------|
D|-------------------------------------|
A|-88888888----------------------------|
E|----------88888888-66666666-88888888-|

Play Verse 4 times

Guitar Solo:
   1+2+3+4+ ...
G|-------------------------------------|
D|-------------------------------------|
A|---888888----------------------------|
E|----------88888888-66666666-88888888-|
   1+2+3+ 4+ ...
G|------------------------------------------|
D|------------------------------------------|
A|---88-7h88--------------------------------|
E|-----------8888-7h88--6666-5h66--8888-888-|

   1+2+3+ a 4 +1+2+3+ a 4 +  1+2+3+ a 4 +  1+2+3+4+
G|-----------------------------------------------------|
D|-----------------------------------------------------|
A|---88-7h8p7h8----------------------------------------|   x2
E|-------------8888-7h8p7h8--6666-5h6p5h6--8888-888----|

G|-----------------------------------------------|
D|-----------------------------------------------|
A|---88-7h8p7h8----------------------------------|
E|-------------8888-7h8p7h8--6666-5h66--8888-888-|

   1+2+3+4+  1+2+3+4+ 1+2+3+4+ 1+2+3+4+
G|--------------------------------------|
D|--------------------------------------|
A|-8~8~-888-----------------------------|
E|-----------8888-888-66666666-88-8-888-|

   1+2+3+4+1+2+3+4+ 1+2+3+4+ 1+2+3+4+
G|------------------------------------|
D|------------------------------------|
A|-888888888--------------------------|
E|----------8888888-66666666-8888888~-|

Play to the end (9 times):              end note
G|-------------------------------------|---------|
D|-------------------------------------|---------|
A|-88888888----------------------------|-8~~~~~~-|
E|----------88888888-66666666-88888888-|---------|


Drop a comment if you have any questions or something to say.

It's disappointing really, because I couldn't find a single bass tab for this song 
online, that's why I tabbed it out.  Have fun with it, later.

            
            
Suggest correction
Creating personal tab
Creating personal tab
You can edit any tab online and save it as your Personal.

You can edit, replace or remove any tab part or add personal notes – all changes will be seen only by you.

Personal tabs can be accessed anytime from any device, even offline.
Learn more »
Give kudos to tab author, rate the tab!
1 2 3 4 5
comments
print report bad tab
2 comments total.
0 reply
EmoBass 10 Nov 02, 2006 11:52 AM

Hey, good tab=D

Great band and the first song I heard from them to so good going^^
just one thing about this bit you tabbed

Guitar Solo: 3rd bit
1+2+3+ a 4 +1+2+3+ a 4 + 1+2+3+ a 4 + 1+2+3+4+
G|-----------------------------------------------------|
D|-----------------------------------------------------|
A|---88-7h8p7h8----------------------------------------| x2
E|-------------8888-7h8p7h8--6666-5h6p5h6--8888-888----|

Should it not be...

Guitar Solo: 3rd bit
1+2+3+ a 4 +1+2+3+ a 4 + 1+2+3+ a 4 + 1+2+3+4+
G|-----------------------------------------------------|
D|-----------------------------------------------------|
A|---88-7h8p7h8----------------------------------------| x2
E|-------------88---7h8p7h8--66---5h6p5h6--8888-888----|

???

I'm not sure but it sounds to me as if it doesnt play 4 just two,
sure yours is right but just want to know what you think

0 reply
Mokrie Dela 31 Mar 01, 2011 10:16 AM

Man this takes me back. Great song, great band, good tab. :D

guest
You may want to rate the tab now too:
select rating
Wanna post a correction for this tab? Suggest correction