Oops, an error
Loading. Please wait.

Sincerely solo tab

by Stephen
1,843 views 9 this week
4 commentsread comments
1 2 3 4 5
x 3
add to favorites
×
Save as Personal and add changes to this tab that will be seen only by you. Learn more ›
×
You can save this tab as Personal to edit and correct it or add notes. All changes will be seen only by you. Learn more »
launch autoscroll
font size
0
reset
how to read this tab
guitar tuner
edit
Autoscroll
slow
fast
+/-
esc
set tempo
stop
Author
Difficulty
Tab for solo at 3:55 in song.
Notes: Parentheses by a note "7(9) or 10(12)" mean play the note on the first fret listed, but bent
to the note of the fret in the parentheses.

e|------------------------------------------------------------------------------------|
B|-8b10-8(10)-8(10)-------------------------------------------------------------------|
G|------------------9-7----7-9-7------------------------------------------------------|
D|----------------------10-------10-8-7\5/7---------------------7---------------------|
A|--------------------------------------------------5/8-10-8-10---5---3---------------|
E|------------------------------------------------------------------------------------|

e|------------------------------------------------------------------------------------|
B|------------------------------------------------------------------------------------|
G|-7b9---7(9)-7(9)--7(8)-7-----7b9p5-5-7------7b9p5-5-7------7b9p5-5-7----7--7--------|
D|------------------------------------------------------------------------------------|
A|------------------------------------------------------------------------------------|
E|------------------------------------------------------------------------------------|

e|------------------------------------------------------------------------------------|
B|-----8---8-10-10b12--10b12----------------------------------------------------------|
G|-7/9---9----------------------9-7-9---------7b9bb7p5-5---5-7----7----7--------------|
D|-------------------------------------------------------7----------------------------|
A|------------------------------------------------------------------------------------|
E|------------------------------------------------------------------------------------|

e|------------------------------------------------------------------------------------|
B|-----8---8-10-10b12---10b12---10b12-------10(12)--10(12)--10(11)--10(11)--10--10\0--|
G|-7/9---9----------------------------------------------------------------------------|
D|------------------------------------------------------------------------------------|
A|------------------------------------------------------------------------------------|
E|------------------------------------------------------------------------------------|


***********************************
b = bend
/ = slide up
\ = slide down
bb = bend back to original note
***********************************

            
            
Suggest correction
Creating personal tab
Creating personal tab
You can edit any tab online and save it as your Personal.

You can edit, replace or remove any tab part or add personal notes – all changes will be seen only by you.

Personal tabs can be accessed anytime from any device, even offline.
Learn more »
Give kudos to tab author, rate the tab!
1 2 3 4 5
comments
print report bad tab
4 comments total. Showing first comments.
0 reply
cameronthekeeper 10 May 23, 2016 11:53 AM

what is the rest of the song like? do you have the chords?

0 reply
show.guitar 10 Jun 01, 2017 04:54 AM

omg i love u. thx a lot man

0 reply
manuelbosch34 10 Jun 20, 2017 02:06 PM

PLZ make an adaption for this song, would be so amazing !

guest
You may want to rate the tab now too:
select rating
Wanna post a correction for this tab? Suggest correction