Oops, an error
Loading. Please wait.

It Might Be You Tab

version 5
version 5

Whole song

Interactive

6,766 views 1 this week
no commentswrite comment
1 2 3 4 5
1 last vote to show rating
add to favorites
launch autoscroll
font size
0
reset
how to read this tab
guitar tuner
Autoscroll
slow
fast
+/-
esc
set tempo
stop
Help us to improve Ultimate-Guitar.com Take our survey!
×
Author
standard tuning

|------3-----5-5--3-|------3-----5-5--3-|------3-----5-5--3-|
|----3---3-3--------|----3---3-3--------|----3---3-3--------|
|--0----------------|--4----------------|--5----------------|
|-------------------|-------------------|-------------------|
|-------------------|-------------------|-------------------|
|-------------------|-------------------|-------------------|

|------3-----3h5--3---3-|
|----3---3-3--------3---|
|--0--------------------|   
|-----------------------|
|-----------------------|
|-----------------------|

|---------------|---------------|---------------0-----------------|
|-----3-----3-3-|-----3-----3-3-|-----3-----3-3---3s1-------------|
|---0-----0-----|---0-----0-----|---0-----0-----------0h2-0-------|  2x
|-------4-------|-------4-------|-------4-------------------0h2-0-|
|---------------|-2-------------|-3-------------------------------|
|-3-------------|---------------|---------------------------------|


Suggest correction
Give kudos to tab author, rate the tab!
1 2 3 4 5
comments
print report bad tab
guest
You may want to rate the tab now too:
select rating
Wanna post a correction for this tab? Suggest correction