Oops, an error
Loading. Please wait.

It Might Be You Tab

version 2
version 2

Whole song

Interactive

12,026 views 6 this week
1 commentread comment
1 2 3 4 5
x 4
add to favorites
launch autoscroll
font size
0
reset
how to read this tab
guitar tuner
Autoscroll
slow
fast
+/-
esc
set tempo
stop
Help us to improve Ultimate-Guitar.com Take our survey!
×
Author
IT MIGHT BE YOU – STEPHEN BISHOP
Tabbed by:AARON JAMES BODORAYA
Email:COMBAT_RON33@YAHOO.COM
Tuning:STANDARD

INTRO:
GUITAR 1
   G                                   G/B
e|-----------3--------5-----5/7---3--|----------3--------5-----5/7---3-----|
B|-----3-----------3-----------------|----3-----------3--------------------|
G|--------4-----4--------4-----------|-------0-----0--------0--------------|
D|--5--------------------------------|-------------------------------------|
A|-----------------------------------|--2----------------------------------|
E|-----------------------------------|-------------------------------------|
GUITAR 2
e|-----------------------------------|-------------------------------------|
B|------------8-------10---10/12--8--|-----------8-------10---10/12--8-----|
G|------7-----------7----------------|-----7-----------7-------------------|
D|---------9-----9-------9-----------|--------9-----9-------9--------------|
A|-----------------------------------|-------------------------------------|
E|--10-------------------------------|--7----------------------------------|


GUITAR 1
   C9                                  D7sus
e|-----------3--------5-----5/7---3--|-----------3--------3/5--3--------3--|
B|-----3-----------3-----------------|-----1--------1-------------3/5------|
G|--------0-----0--------0-----------|--------2--------2-------------------|
D|-----------------------------------|--0----------------------------------|
A|--3--------------------------------|-------------------------------------|
E|-----------------------------------|-------------------------------------|
GUITAR 2
e|-----------------------------------|-------------------------------------|
B|-----------8-------10----10/12--8--|-----------8--------8/10--10------8--|
G|-----7-----------7-----------------|-----5--------5--------------7/9-----|
D|--------9-----9--------9-----------|--------7--------7-------------------|
A|-----------------------------------|--5----------------------------------|
E|--8--------------------------------|-------------------------------------|


GUITAR 1
   G                                   G/B
e|-----------3--------5-----5/7---3--|----------3--------5-----5/7---3-----|
B|-----3-----------3-----------------|----3-----------3--------------------|
G|--------4-----4--------4-----------|-------0-----0--------0--------------|
D|--5--------------------------------|-------------------------------------|
A|-----------------------------------|--2----------------------------------|
E|-----------------------------------|-------------------------------------|
GUITAR 2
e|-----------------------------------|-------------------------------------|
B|------------8-------10---10/12--8--|-----------8-------10---10/12--8-----|
G|------7-----------7----------------|-----7-----------7-------------------|
D|---------9-----9-------9-----------|--------9-----9-------9--------------|
A|-----------------------------------|-------------------------------------|
E|--10-------------------------------|--7----------------------------------|


GUITAR 1
   C9                                  D7sus
e|-----------3--------5-----5/7---3--|-----------3--------3/5--3--------3--|
B|-----3-----------3-----------------|-----1--------1-------------3/5------|
G|--------0-----0--------0-----------|--------2--------2-------------------|
D|-----------------------------------|--0----------------------------------|
A|--3--------------------------------|-------------------------------------|
E|-----------------------------------|-------------------------------------|
GUITAR 2
e|-----------------------------------|-------------------------------------|
B|-----------8-------10----10/12--8--|-----------8--------8/10--10------8--|
G|-----7-----------7-----------------|-----5--------5--------------7/9-----|
D|--------9-----9--------9-----------|--------7--------7-------------------|
A|-----------------------------------|--5----------------------------------|
E|--8--------------------------------|-------------------------------------|


GUITAR 1
   G                                  G/B
e|-----------------------------------|-------------------------------------|
B|--------------------3--3-----------|--------------------3--3-------------|
G|--------0--------0-----------------|--------0--------0-------------------|
D|-----0-----0--4--------------------|-----0-----0--4----------------------|
A|-----------------------------------|--2--------------------2-------------|
E|--3--------------------3-----------|-------------------------------------|
GUITAR 2
e|-------------------10--10----------|-------------------10--10------------|
B|--------------7--8-----------------|--------------7--8-------------------|
G|--------7--------------------------|--------7----------------------------|
D|-----9-----9-----------------------|-----9-----9-------------------------|
A|--10-------------------------------|-------------------------------------|
E|-----------------------------------|--7----------------------------------|


GUITAR 1
   C9                                      G 
e|-------------------------------------------------------------------------|
B|--------------------3--3--5----------------------------------------------|
G|--------0--------0-----------5--4--2--0--0-------------------------------|
D|-----0-----0--4----------------------------------------------------------|
A|--3--------------------3-----0-------------------------------------------|
E|-----------------------------------------3-------------------------------|
GUITAR 2
e|--------------------10-10-12---------------------------------------------|
B|--------------7--8-----------13-12-10-8--8-------------------------------|
G|--------7----------------------------------------------------------------|
D|-----9-----9-------------------------------------------------------------|
A|-------------------------------------------------------------------------|
E|--8----------------------------------------------------------------------|


1ST VERSE
    G                G/B                C9               D7sus  
e|----------3-----------------3-----------------0----------------3---------|
B|------0-------0---------3-------3---------3-------3--------1-------1-----|
G|----0---0---0---0-----0---0---0---0-----0---0---0---0----2---2---2---2---|
D|--------------------------------------------------------0----------------|
A|--------------------2-----------------3----------------------------------|
E|--3----------------------------------------------------------------------|
   TIME, I’VE BEEN   PASSING TIME WATCHING TRAINS GO BY      ALL OF MY LIFE

    G                G/B                C9               A/Db     
e|----------3-----------------3-----------------0-----------------0--------|
B|------0-------0---------3-------3---------3-------3---------2-------2----|
G|----0---0---0---0-----0---0---0---0-----0---0---0---0-----0---0---0---0--|
D|-------------------------------------------------------------------------|
A|--------------------2-----------------3-----------------4----------------|
E|--3----------------------------------------------------------------------|
            LYIN   ON THE SAND WATCHING SEA BIRDS FLY           WISHING

    G/D               Ebdim            Em               A7
e|------------3---------------2-----------------2-0------------------------|
B|------3---3---3---------1-----1---1-------0-------0----2-----------------|
G|----4---4-------4-----2---2-----2-------0---0-------0--------------------|
D|--0-----------------1----------------------------------------------------|
A|-------------------------------------------------------0-----------------|
E|--------------------------------------0----------------------------------|
    THERE WOULD BE     SOMEONE WAITIN HOME FOR ME              SOMETHINGS 

REFRAIN:

   Am7                  D
e|-------------0-------------2/3\2-----0-------------|
B|--------1----------1--------------------3-----0----|
G|-----0-----0----0-----------------2--------2-------|
D|----------------------0----------------------------|
A|--0------------------------------------------------|
E|---------------------------------------------------|
  TELLIN ME IT MIGHT BE YOU

   Am7                  D
e|-------------0-------------2/3\2-----0-------------|
B|--------1----------1--------------------3-----0----|
G|-----0-----0----0-----------------2--------2-------|
D|----------------------0----------------------------|
A|--0------------------------------------------------|
E|---------------------------------------------------|
   YA ITS TELLIN ME IT MIGHT BE YOU            ALL OF MY LIFE

ADLIB:

GUITAR 1
   G                                  G/B
e|-----------------------------------|-------------------------------------|
B|--------------------3--3-----------|--------------------3--3-------------|
G|--------0--------0-----------------|--------0--------0-------------------|
D|-----0-----0--4--------------------|-----0-----0--4----------------------|
A|-----------------------------------|--2--------------------2-------------|
E|--3--------------------3-----------|-------------------------------------|
GUITAR 2
e|-------------------10--10----------|-------------------10--10------------|
B|--------------7--8-----------------|--------------7--8-------------------|
G|--------7--------------------------|--------7----------------------------|
D|-----9-----9-----------------------|-----9-----9-------------------------|
A|--10-------------------------------|-------------------------------------|
E|-----------------------------------|--7----------------------------------|


GUITAR 1
   C9                                      G 
e|-------------------------------------------------------------------------|
B|--------------------3--3--5----------------------------------------------|
G|--------0--------0-----------5--4--2--0--0-------------------------------|
D|-----0-----0--4----------------------------------------------------------|
A|--3--------------------3-----0-------------------------------------------|
E|-----------------------------------------3-------------------------------|
GUITAR 2
e|--------------------10-10-12---------------------------------------------|
B|--------------7--8-----------13-12-10-8--8-------------------------------|
G|--------7----------------------------------------------------------------|
D|-----9-----9-------------------------------------------------------------|
A|-------------------------------------------------------------------------|
E|--8----------------------------------------------------------------------|

2ND VERSE
(CHORDS SAME AS 1ST VERSE)

LOOKING BACK AS LOVERS GO WALKIN FAST
ALL OF MY LIFE
WONDRIN HOW THEY’VE MET AND WHAT MAKES IT LAST
IF I FOUND A PLACE WOULD I RECOGNIZE THE FACE
AND ITS TELLIN ME IT MIGHT BE YOU
YA ITS TELLIN ME IT MUST BE YOU

CHORUS:

   Em                                              Bm
e|--------------0-----------------------0-----------------------2----------|
B|--------0-----------0-----------0-----------0-----------3-----------3----|
G|-----0-----0-----0-----0-----0-----0-----0-----0-----4-----4-----4-----4-|
D|-------------------------------------------------------------------------|
A|--------------------------------------------------2----------------------|
E|--0-----------------------0----------------------------------------------|
                  SO MANY QUIET    WALKS    TO     TAKE

   Dm7                     Am7                  Cm7
e|--------------1-----------------------0--------------------3-------------|
B|--------1-----------1-----------1-----------1--------4-----------4-------|
G|-----2-----2-----2-----2-----0-----0-----0--------3-----3-----3-----3----|
D|--0----------------------------------------------------------------------|
A|--------------------------0--------------------3-------------------------|
E|-------------------------------------------------------------------------|
   SO  MANY  DREAMS   TO   WAKE            ONLY  SO  MUCH  LOVE  TO

    G                         D/F#       Bm7
e|--------------0----------------------2-----------2-----------------------|
B|--------0-----------0-------------3-----------3--------------------------|
G|-----0-----0-----0-----0-------2-----------4-----------------------------|
D|-------------------------------------------------------------------------|
A|----------------------------------------2--------------------------------|
E|--3-----------------------3--2-------------------------------------------|
   MAKE

   Em                      A7sus    A7          DM7
e|--------------0-----------------------------------------2----------------|
B|--------0-----------0-----------3--------2-----------2--------2----------|
G|-----0-----0-----0-----0-----0--------0-----0-----2--------2-----2-------|
D|-----------------------------------------------0-------------------------|
A|--------------------------0--------0-------------------------------------|
E|--0----------------------------------------------------------------------|
              I THINK WE’RE GONNA  NEED          SOMETIME         

            G7                   CM7                      C9
e|-------------------1------------------------0-----------3---------0------|
B|----------------0--------0------------0-----------0----------3-----------|
G|-------------0--------0-----0------0-----0-----0-----0-------------------|
D|-------------------------------------------------------------------------|
A|--------------------------------3-----------------------3----2-----------|
E|----------3--------------------------------------------------------------|
  MAYBE     ALL   WE  NEED   IS   TIME                         AND IT’S


REFRAIN:

   Am7                  D
e|-------------0-------------2/3\2-----0-------------|
B|--------1----------1--------------------3-----0----|
G|-----0-----0----0-----------------2--------2-------|
D|----------------------0----------------------------|
A|--0------------------------------------------------|
E|---------------------------------------------------|
  TELLIN ME IT MIGHT BE YOU

   Am7                  D
e|-------------0-------------2/3\2-----0-------------|
B|--------1----------1--------------------3-----0----|
G|-----0-----0----0-----------------2--------2-------|
D|----------------------0----------------------------|
A|--0------------------------------------------------|
E|---------------------------------------------------|
   YA ITS TELLIN ME IT MIGHT BE YOU            ALL OF MY LIFE


3RD VERSE
(CHORDS SAME AS 1ST VERSE)


I’VE BEEN SAVIN LOVE SONGS AND LULLABYES
AND THERE’S SO MUCH MORE NO ONE EVER HEARD BEFORE
AND ITS TELLIN ME IT MIGHT BE YOU
YA ITS TELLIN ME IT MUST BE YOU
AND I FEELIN IT’LL JUST BE YOU 
ALL OF MY LIFE

OUTRO:

GUITAR 1
   G                                  G/B
e|-----------------------------------|-------------------------------------|
B|--------------------3--3-----------|--------------------3--3-------------|
G|--------0--------0-----------------|--------0--------0-------------------|
D|-----0-----0--4--------------------|-----0-----0--4----------------------|
A|-----------------------------------|--2--------------------2-------------|
E|--3--------------------3-----------|-------------------------------------|
GUITAR 2
e|-------------------10--10----------|-------------------10--10------------|
B|--------------7--8-----------------|--------------7--8-------------------|
G|--------7--------------------------|--------7----------------------------|
D|-----9-----9-----------------------|-----9-----9-------------------------|
A|--10-------------------------------|-------------------------------------|
E|-----------------------------------|--7----------------------------------|
                   MAYBE ITS YOU                    MAYBE ITS YOU


GUITAR 1
   C9                                      G 
e|-------------------------------------------------------------------------|
B|--------------------3--3--5----------------------------------------------|
G|--------0--------0-----------5--4--2--0--0-------------------------------|
D|-----0-----0--4----------------------------------------------------------|
A|--3--------------------3-----0-------------------------------------------|
E|-----------------------------------------3-------------------------------|
GUITAR 2
e|--------------------10-10-12---------------------------------------------|
B|--------------7--8-----------13-12-10-8--8-------------------------------|
G|--------7----------------------------------------------------------------|
D|-----9-----9-------------------------------------------------------------|
A|-------------------------------------------------------------------------|
E|--8----------------------------------------------------------------------|
              I’VE BEEN WAITIN FOR ALL OF MY LIFE

                        


Sa mga tropa ko sa PANDACAN kila Jason, rogel, loyd, bonsunog,jonjon!
Sunod ko nalang yung riff ng guitar 2 translate ko pa galling piano eh!
Suggest correction
comments
print report bad tab
1 comment total.
0 reply
theman91111 10 Apr 04, 2009 06:50 PM

Check out version 7 of this tab. It's better than any other version.

guest
You may want to rate the tab now too:
select rating
Wanna post a correction for this tab? Suggest correction