Oops, an error
Loading. Please wait.

It Might Be You Tab

version 6
version 6
807 views 1 this week
no commentswrite comment
1 2 3 4 5
please rate
add to favorites
launch autoscroll
font size
0
reset
how to read this tab
guitar tuner
Tab Pro tools
  • play this tab
  • loop segment
  • change instrument
  • show fretboard
  • metronome
Autoscroll
slow
fast
+/-
esc
set tempo
stop
Contributor
Difficulty
INTRO

Guitar 1

e|-------5---5h7---|-----3-5---5h7---|-----3-5---5h7---|-----------------|
B|-----8---------8-|---3-----------8-|---3-----------8-|-----8-8h10-10-8-|
G|---7-----7-------|---------7-------|---------7-------|---7-------------|
D|-5---------------|-----------------|-----------------|-0---------------| x2
A|-----------------|-2---------------|-3---------------|-----------------|
E|-----------------|-----------------|-----------------|-----------------|

Guitar 2

e|---2-3-----------|---2-3-----------|---2-3-----------|---2-3-----------|
B|-------3---------|-0-----3---------|-1-----3---------|-3-----3---------|
G|-0---------------|-----------------|-----------------|-----------------|
D|-----------------|-----------------|-----------------|-----------------| x2
A|-----------------|-----------------|-----------------|-----------------|
E|-----------------|-----------------|-----------------|-----------------|

e|-------------|
B|-------------|
G|-0h2-0-----0-|
D|-------0h4---|
A|-------------|
E|-------------|

Guitar 1

e|-3333-3333-33333333-|
B|-3333-3333-33333333-|
G|-0000-4444-55555555-|
D|--------------------|
A|--------------------|
E|--------------------|

Guitar 2


e|-8s10-8p7---8s10-8p7-8s10------7h8s10-8p7---|
B|----------8---------------8h10------------8-|
G|--------------------------------------------|
D|--------------------------------------------|
A|--------------------------------------------|
E|--------------------------------------------|


e|-14s15-14-10s12-10-10-8-7h8s10-7h8s10-|
B|--------------------------------------|
G|--------------------------------------|
D|--------------------------------------|
A|--------------------------------------|
E|--------------------------------------|

e|-15s17-15-14h15-17-15h17-17s19-17-15-|
B|-------------------------------------|
G|-------------------------------------|
D|-------------------------------------|
A|-------------------------------------|
E|-------------------------------------|

e|-17-15-17-17s19-17-15-|
B|----------------------|
G|----------------------|
D|----------------------|
A|----------------------|
E|----------------------|

Guitar 1

e|-----10-10-----|-----10-10-----|-----10-10-10s12-8-7--------|
B|-7h8-------7h8-|-7h8-------7h8-|-7h8-----------------10-8-8-|
G|-----------7---|-----------7---|----------------------------|
D|---------------|---------------|----------------------------|
A|---------------|---------------|----------------------------|
E|---------------|---------------|----------------------------|

Guitar 2

e|---------|-----------|-----------------------|
B|---------|-----------|-----------------------|
G|-----7-7-|-----7s9-7-|-----7-7-7s9-5-4-------|
D|-4h5-----|-4h5-------|-4h5-------------7-5-5-|
A|---------|-----------|-----------------------|
E|---------|-----------|-----------------------|

Guitar 3 (Acoustic)

G - Bm - C - D

VERSE

Guitar 2

e|----------3-----------------3-----------------0----------------3---------|
B|------0-------0---------3-------3---------3-------3--------1-------1-----|
G|----0---0---0---0-----0---0---0---0-----0---0---0---0----2---2---2---2---|
D|--------------------------------------------------------0----------------|
A|--------------------2-----------------3----------------------------------|
E|--3----------------------------------------------------------------------|

e|----------3-----------------3-----------------0-----------------0--------|
B|------0-------0---------3-------3---------3-------3---------2-------2----|
G|----0---0---0---0-----0---0---0---0-----0---0---0---0-----0---0---0---0--|
D|-------------------------------------------------------------------------|
A|--------------------2-----------------3-----------------4----------------|
E|--3----------------------------------------------------------------------|

e|-3-|-----------|----------|
B|-3-|-----------|-5*-------|
G|-4-|-bass fill-|----5*----|
D|-5-|-----------|-------5*-|
A|-5-|-----------|----------|
E|---|-----------|----------|

Bass Fill

e|---------|
B|---------|
G|---------|
D|---------|
A|-5-6-6---|
E|-------5-|

Guitar 3 (Acoustic)

G - Bm7 - C - Dsus4
Time, I've been passing time watching trains go by

D  
All of my life,

G - Bm7 - C - A7
Lying on the sand, watching seabirds fly

G - B7 - Em - A7
Wishing there would be, someone waiting home for me

CHORUS

Guitar 2

e|-------------0-------------2/3\2-----0-------------|
B|--------1----------1--------------------3-----0----|
G|-----0-----0----0-----------------2--------2-------|
D|----------------------0----------------------------| x2
A|--0------------------------------------------------|
E|---------------------------------------------------|

Guitar 3(Acoustic)

Am - D
Something's telling me it might be you

D - Em - Am - D
It's telling me it might be you all of my life
comments
We did not receive enough feedback on this tab! Please rate:
print report bad tab
1 2 3 4 5
I want to post or [tab]
guest
You may want to rate the tab now too:
select rating
Please do not post tabs as comments. Select "correction" instead!