Oops, an error
Loading. Please wait.

It Might Be You tab

version 7
version 7

Whole song

Interactive

5,591 views 114 this week
no commentswrite comment
1 2 3 4 5
3 more votes to show rating
add to favorites
×
Save as Personal and add changes to this tab that will be seen only by you. Learn more ›
×
You can save this tab as Personal to edit and correct it or add notes. All changes will be seen only by you. Learn more »
launch autoscroll
font size
0
reset
how to read this tab
guitar tuner
edit
Autoscroll
slow
fast
+/-
esc
set tempo
stop
Author
Difficulty
About this tab version
This is high quality fingerstyle tab and I have supporting video tutorial as shown in the youtube link. Was this info helpful? Yes No
It Might Be You by Stephen Bishop

Tabs written and arranged by Edwin-E (YouTube)
Blog: guitarplucking.blogspot.com

Video Tutorial: http://www.youtube.com/watch?v=uils_UDtZoU


E|-------------------------------------------------------1--|
B|--0----------------0--1--3--0--------0-----------------2--|
G|----------0--0--2--------------0--2-----0-----0-----1--1--|
D|-------0-----------------------------------2-----0--------|
A|----2--------------2--------------3-----------------------|
E|--3-------------------------------------------------------|
 G               Bm                      C          D
Time, I've been passing, time watching trains go by


E|-----------------------------------------2--3--0--------------1--|
B|-----------0--------------0--1--3--0--------------1-----------2--|
G|--0-----------------------------------0--------------0--------0--|
D|-----2--0--------0--0--2-----------------------------------2--2--|
A|--------------2-----------2--------------3--------------0--------|
E|-----------3-----------------------------------------------------|
           G         Bm                     C           A7
All of my life lying on the sand, watching seabirds fly


E|--0--2--2--3-----2-------------------------------0--|
B|--------------3--1--1--0--1/3--0-----0-----------2--|
G|-----------------2----------------2-----0--------0--|
D|-----------------1----------------------------2--2--|
A|-------------------------------------------2-----0--|
E|--------3-------------------------0-----------------|
          G           Cdim              Em        A7
Wishing there would be someone waiting home for me


E|----------------------------------2--|
B|-----0--1--0--1--0--1/3--0-----3-----|
G|--2-------------------------2--------|
D|----------------------------0--------|
A|--------0----------------------------|
E|-------------------------------------|
             Am7                    D
Something's telling me it might be you

E|----------------------------------2--|
B|-----0--1--0--1--0--1/3--0-----3-----|
G|--2-------------------------2--------|
D|----------------------------0--------|
A|--------0----------------------------|
E|-------------------------------------|
       Am7                   D
It's telling me it might be you


E|--------------------|
B|-----------0--------|
G|--0-----------------|
D|-----2--0--------0--|
A|--------------2-----|
E|-----------3--------|
           G
All of my life


Follow the same tabs and chords from top:

Looking back as lovers go walking past all of my life
Wondering how they met and what makes it last
If I found the place, would I recognize the face?
Something's telling me it might be you
Yeah, it's telling me it might be you


E|--------------------------2--2h3--2--------------------|
B|--------------------0--3-------------0--3--------3-----|
G|--1--3-----------0----------------------------4-----4--|
D|--------------2----------------------------4-----------|
A|-----------2----------------------------2--------------|
E|--------0-----------------0----------------------------|
Em                      Bm
So many quiet walks to take

E|--1--1--1--0--------------0--|
B|-----------------1-----------|
G|--------------2--------0-----|
D|--------------------2--------|
A|-----------------3-----------|
E|--3--------------------------|
G                  C
So many dreams to wake

E|--------------------------------------------------2--2--|
B|--1--3--4--------4--4--------------3--------------2--4--|
G|--------------5-----------4-----------4-----------2--2--|
D|-----------5-----------5--------5--------5--------4--4--|
A|--------3--------------------5-----------------4-----2--|
E|--------------------------3-----------------2-----------|
          Cm               G    F#m-B7
And we've so much love to make


E|----------------------2--3--3/5--0--2-----------|
B|----------------0--3-------------------------3--|
G|-------------0----------------------------4-----|
D|----------2----------------------------4--------|
A|-------2----------------------------2-----------|
E|----0-----------------0-------------------------|
Em                                 Bm
Oh, I think we've gonna need some time


E|--1--1--3-----0-----------|
B|-----------3-----------1--|
G|--------------------0-----|
D|-----------------2--------|
A|--------------3-----------|
E|--3-----------------------|
  G                   C
Maybe all we need is time

E|----------------------------------2--|
B|-----0--1--0--1--0--1/3--0-----3-----|
G|--2-------------------------2--------|
D|----------------------------0--------|
A|--------0----------------------------|
E|-------------------------------------|
         Am7                     D
And it's telling me it might be you

E|--------------------|
B|-----------0--------|
G|--0-----------------|
D|-----2--0--------0--|
A|--------------2-----|
E|-----------3--------|
           G
All of my life


E|-----------------------2--3--0--------0--|
B|--------0--0--3--0--------------0-----2--|
G|--0--2--------------0--------------0--0--|
D|--------------------------------------2--|
A|--------2--------------3--------------0--|
E|-----------------------------------------|
G          Bm                    C        A7
I've been saving love songs and lullabies

E|--0--2--5--3-----2----------------5--7--3--7--|
B|--------------3--1--1--0--1/3--0-----------5--|
G|-----------------2-------------------------6--|
D|-----------------1----------------------------|
A|----------------------------------------------|
E|--------3-------------------------0-----------|
             G           Cdim            Em         A7
And there're so much more no one's ever heard before

E|----------------------------------2--|
B|-----0--1--0--1--0--1/3--0-----3-----|
G|--2-------------------------2--------|
D|----------------------------0--------|
A|--------0----------------------------|
E|-------------------------------------|
             Am7                    D
Something's telling me it might be you

E|----------------------------------2--|
B|-----0--1--0--1--0--1/3--0-----3-----|
G|--2-------------------------2--------|
D|----------------------------0--------|
A|--------0----------------------------|
E|-------------------------------------|
             Am7                  D
Yeah, it's telling me it must be you


E|----------------------------------2--|
B|-----0--1--0--1--0--1/3--0-----3-----|
G|--2-------------------------2--------|
D|----------------------------0--------|
A|--------0----------------------------|
E|-------------------------------------|
         Am7                  D
And I'm feeling it'll just be you

E|--------------------|
B|-----------0--------|
G|--0-----------------|
D|-----2--0--------0--|
A|--------------2-----|
E|-----------3--------|
           G
All of my life


E|--------------------|
B|--------3--3--------|
G|--0--2-----------4--|
D|--------------4-----|
A|-----------2--------|
E|--------------------|
             Bm
May be it's you (It's you)

E|--------------------|
B|--------3--3--------|
G|-----0-----------0--|
D|--4-----------2-----|
A|-----------3--------|
E|--------------------|
            C
Maybe it's you (It's you)


E|-----------0--------------------------3-----|
B|--1--3--3-----1--0--------------------0-----|
G|--------------------2-----0--------0--0-----|
D|--------0--------------2--------0-----0-----|
A|-----------------------------2--------2-----|
E|--------------------------3-----------3—--|
            D                    G
I've been waiting for all of my life

            
            
Suggest correction
Creating personal tab
Creating personal tab
You can edit any tab online and save it as your Personal.

You can edit, replace or remove any tab part or add personal notes – all changes will be seen only by you.

Personal tabs can be accessed anytime from any device, even offline.
Learn more »
Give kudos to tab author, rate the tab!
1 2 3 4 5
comments
print report bad tab
guest
You may want to rate the tab now too:
select rating
Wanna post a correction for this tab? Suggest correction