Oops, an error
Loading. Please wait.

Oh Susanna bass

2,919 views 1 this week
no commentswrite comment
1 2 3 4 5
2 more votes to show rating
add to favorites
×
Save as Personal and add changes to this tab that will be seen only by you. Learn more ›
×
You can save this tab as Personal to edit and correct it or add notes. All changes will be seen only by you. Learn more »
launch autoscroll
font size
0
reset
guitar tuner
edit
Autoscroll
slow
fast
+/-
esc
set tempo
stop
Author
Difficulty
These are the Bass tabs of the classic "Oh Susanna", a piece originally composed by 
Foster in 1847...Standard Tuning EADG...
very easy, yet fun to play...I've also made a second, easier version, to keep the 
hand on the same position on the neck...enjoy and rate!
Tabbed by nosferatu88

G ------------------------------|
D 0-2-4-7-7-9-7-4-0-2-4-4-2-0-2-|
A ------------------------------|
E ------------------------------|

G ------------------------------|
D 0-2-4-7-7-9-7-4-0-2-4-4-2-2-0-|
A ------------------------------|
E ------------------------------|

G -----------------------------|
D 5-5-9-9-9-7-9-7-4h0p2--------|
A -----------------------------|
E -----------------------------|

G ------------------------------|
D 0-2-4-7-7-9-7-4-0-2-4-4-2-2-0-|
A ------------------------------|
E ------------------------------|

2nd VERSION

G -----2-2-4-2-----------------|
D 0-2-4-------4-0-2-4-4-2-0-2--|
A -----------------------------|
E -----------------------------|

G -----2-2-4-2-----------------|
D 0-2-4-------4-0-2-4-4-2-2-0--|
A -----------------------------|
E -----------------------------|

G 0-0-4-4-4-2-4-2--------------|
D ---------------4h0p2---------|
A -----------------------------|
E -----------------------------|

G -----2-2-4-2-----------------|
D 0-2-4-------4-0-2-4-4-2-2-0--|
A -----------------------------|
E -----------------------------|

Tabbed by nosferatu88
Suggest correction
Creating personal tab
Creating personal tab
You can edit any tab online and save it as your Personal.

You can edit, replace or remove any tab part or add personal notes – all changes will be seen only by you.

Personal tabs can be accessed anytime from any device, even offline.
Learn more »
Give kudos to tab author, rate the tab!
1 2 3 4 5
comments
print report bad tab
guest
You may want to rate the tab now too:
select rating
Wanna post a correction for this tab? Suggest correction