Oops, an error
Loading. Please wait.

William Shatners Dog tab

2,760 views 1 this week
1 commentread comment
1 2 3 4 5
1 last vote to show rating
add to favorites
×
Save as Personal and add changes to this tab that will be seen only by you. Learn more ›
×
You can save this tab as Personal to edit and correct it or add notes. All changes will be seen only by you. Learn more »
launch autoscroll
font size
0
reset
how to read this tab
guitar tuner
edit
Autoscroll
slow
fast
+/-
esc
set tempo
stop
Hi I'm a big Stephen Fretwell fan and try to find as many of his tabs as possible.  I
this song on U Tube - Stephen performs it live and its also on his new ep. Made me smile
I thought I'd try and tab it.  Its just rough at the moment but if you have amendments 
send them through (shandyhaggis@yahoo.com)

Thanks:-)

William Shatners Dog

capo 5th fret


Intro / Riff 1 play 3 times

E|-1---1---0--------------------------------------------------------------|
D|-3-----------3----1----1---------------------------1---------1----------|
G|-2-----------------------------------------------------------2----------|
D|-0------------------------------------0---2--------2---------2----------|
A|-----------------------2----2----3------------3----3----2---------2---3-|
E|-----------------------3------------------------------------------------|


end of riff 1 play at end 3rd

E|--1------0-----0------|
D|--1------0-----0------|
G|--2------2-----1------|
D|--3------2-----0------|
A|--3------2-----2------|
E|--1------0-----0------|


Verse riff

Intro / Riff 1 play 3 times

E|-------------------------------------------------------------------------------------|
D|----1--------1--------1--------1---------1-----------------1---------1--------------1|
G|----2--------------------------2---------------------------2------------------------2|
D|----2--------2-----------------2---------2-----------------2---------2--------------2|
A|0-------3----3----2---2----0---0-----3---3----2----3---0---------3---3----2----5----0|
E|-------------------------------------------------------------------------------------|

verse 1
I walk by the water and
head for your house
though I know that you'll be out
in some dirty city bar

I stand on your street
and I stare at your room
and the shadows play and move
and your brother comes out with a bat

chrous
Sayin that
you might be with your sister in Paris
on the Rue turnau
wearing Marline Ditrik glasses
where we made that bet
that bet I knew youd win for sure
when you where sick on the floor

verse 2
The denim is ripped
beneath the patch
its an itch I can never scratch
now its so far gone the past

The fines I
having trouble to contest
with the library book you kept
the one that sent your head so far west

chrous
far far away
in those continental cities
where they get in a race
to see who can build the tallest buildings

where you went for some space
and wound up
with a slightly redder face
and a pain in your gut

verse 3
I turn on the TV
and I see there your face
and in it is not one trace
of that old brown bowl of lace

and that bowl of lace
is sat beside the gas bar fire
where you probably laid
eating ice cream chocolate wallaims

that your mother brought home
from the freezer store
on the old kent road
she too had enough

and that look on your face
that you'd throw accross the dinner table
in the middle of grace
with your fathers eye closed shut tight

and it happend like that
every damn night
that I had to come
to your house

well tell Charles Okief
that i dont want to go to Paris
its sunnier hear
and Im happier in this loveless marriage

with the girl from the pru
and your father and your sister
and your mother too
and not forgeting you

            
            
Suggest correction
Creating personal tab
Creating personal tab
You can edit any tab online and save it as your Personal.

You can edit, replace or remove any tab part or add personal notes – all changes will be seen only by you.

Personal tabs can be accessed anytime from any device, even offline.
Learn more »
Give kudos to tab author, rate the tab!
1 2 3 4 5
comments
print report bad tab
1 comment total.
0 reply
yonni_man 131 Oct 15, 2007 02:42 PM

capo is on 4

guest
Wanna post a correction for this tab? Suggest correction