Oops, an error
Loading. Please wait.

Love Is Strong Tab

3,264 views 1 this week
1 commentread comment
1 2 3 4 5
please rate
add to favorites
launch autoscroll
font size
0
reset
how to read this tab
guitar tuner
Autoscroll
slow
fast
+/-
esc
set tempo
stop
Help us to improve Ultimate-Guitar.com Take our survey!
×
Author
Difficulty
Capo
intermediate
4th fret
Standard Tuning
Capo 4th fret
Tabs relative to capo

Watch this video to figure out the strumming pattern and whatnot.
http://www.youtube.com/watch?v=9P00UtcAh8A

e---------0--------0-------0-------0--------------------|
B----------0--------0-------0-------0-------------------|
G--------2--------2-------1-------4---------------------|
D------4---------2-------2-------4----------------------|
A----4---------0-------2-------2------------------------|
E-------------------------------------------------------|
(repeat this until chorus)

I don't need love,
'Cause I already found it.
Push comes to shove,
I guess I never really had it
Inside my heart
To let you go and break it.

Pre-Chorus:
That was my old way of thinking before we met.
That was my old state of mind before you left,
And this is what I have to say for myself

Chorus:
e----------------------------------------------|
B----------------------------------------------|
G----6-----4------2------X3----4---------------|
D----6-----4------2--------------4-------------|
A----4-----2------1--------------2-------------|
E----------------------------------------------|
Love is strong,
You don't need anyone to hold you back from what you want.
Love is strong,
Did you know anyone can feel it?
Just put trust in someone,
In someone.

Should I give up?
And that's my only question.
It's just too much,
Wish it never would've happened.
We were in love,
'Til she forgot that it existed.

Pre-Chorus & Chorus;


e---2h4---0------------0----5----7\3--0----2h4--0----------0-------7-----7----------|
B-------------0-------0--------0------------------------0------0-----------0-----5--|
G---------------1h2----2/6----6--6\2--0--------------1h2---2/6--------6-----6-------|
D-----------------------------------------------------------------------------------|
A-----------------------------------------------------------------------------------|
E-----------------------------------------------------------------------------------|


e--4h7-----0----------0------5-----7/3--0-------4h7--0----------5--------12*-----------|
B-------------0------0----------0----------------------------0----------0---------12*--|
G--------------1h2----2/6------6---6/2--0-----------------1h2------6-------------------|
D--------------------------------------------------------------------------------------|
A--------------------------------------------------------------------------------------|
E--------------------------------------------------------------------------------------|

Chorus
Suggest correction
Give kudos to tab author, rate the tab!
1 2 3 4 5
comments
print report bad tab
1 comment total.
-1 reply
HiImAlexD 10 wrote on January 23 2011, 12:58 am

Hi! I just noticed this tab, it's funny 'cause that's the exact tab I've sent to everyone who's watched my video and asked for the tab. http://www.youtube.com/watch?v=M4KNJHqOEbA So if you could at least put me as a contributor if you took this from me at least? :D please and thanks

guest
You may want to rate the tab now too:
select rating
Please do not post tabs as comments. Select "correction" instead!