Oops, an error
Loading. Please wait.

She Said Tab

version 1
version 1

Whole song

10,169 views 1 this week
2 commentsread comments
1 2 3 4 5
x 4
add to favorites
launch autoscroll
font size
0
reset
how to read this tab
guitar tuner
Autoscroll
slow
fast
+/-
esc
set tempo
stop
Help us to improve Ultimate-Guitar.com Take our survey!
×
Author
Difficulty
intermediate
Riff 1

E|---------------------------------------------------------------------|
B|------12--------5-------------12----------5------------7--------12---|
G|----9---------6------------9-----------6------------8--------9-------|
D|-11---------7-----------11----------7------------9--------11---------|
A|---------------------------------------------------------------------|
E|---------------------------------------------------------------------| 

E|---------------------------------------------------------------------|
B|--------------4-------5--------7--------2----------------------------|
G|-----------4-------6--------8--------2-------------------------------|
D|--------6-------7--------9--------4----------------------------------|
A|---------------------------------------------------------------------|
E|---------------------------------------------------------------------| 

Riff 1

Grab ah drink dancin' under flashing lights
She's ah queen but she wont put up a fight
Everybody knows that shes a looker but she ain't quite right
So I lie through my teeth again

Riff 1

Been around see I think I know the type
Honesty is not the policy she likes
Choice words spoken to her in the heat of night
So I lie through my teeth again

Riff 1

Oh boy would you mind if I got closer
Oh boy I can tell you want me dontcha

And I say what do you think that ah we cant get you
Anything you ask for, out on the dance floor
She said


A
Ohh do you love me
                   B5        C#5
I wonder why she talks like that

C#5
Oh tell me something
                         B5    A
Tell me how'd you get to be so bad

A
Hey I know something you don't

B5    C#5
Lets go

C#5                         B5   A
We can go wherever you want to go

A
How would you feel if I told ya

(You ain't worth the trouble)

Riff 1

Hard to think dancing under flashing lights
Touchin me tellin me I'm just her type
And everyone's telling me that she's ah Hollywood hype
So tonight I'm gonna lie through my teeth again

Riff 1

O boy would you mind if I got closer
O boy I can tell you want me dont cha
And I say what do you think that ah we cant get you anything you ask for
Out on the dance floor
She said!

A
Ohh do you love me
                   B5        C#5
I wonder why she talks like that

C#5
Oh tell me something
                         B5    A
Tell me how'd you get to be so bad

A
Hey I know something you don't

B5    C#5
Lets go

C#5                         B5   A
We can go wherever you want to go

A
How would you feel if I told ya


Riff 2

E|---------------------------------------------------|
B|---------------------------------------------------|
G|---------------------------------------------------|
D|---11----6-----7------------9--9---11--------------|
A|---11----6-----7------------9--9---11--------------|
E|---9-----4-----5------------7--8---9---------------|  

Riff 2
Shes lookin at me but I know that she don't see
I couldn't love her when there's so many others
Blowing kisses at me but she aims to high
How could I love her when there's so many others
(repeat)

A
Ohh do you love me
                   B5        C#5
I wonder why she talks like that

C#5
Oh tell me something
                         B5    A
Tell me how'd you get to be so bad

A
Hey I know something you don't

B5    C#5
Lets go

C#5                         B5   A
We can go wherever you want to go

A                               B5  C#5
How would you feel if I told ya


C#5                           
How would you feel if I told ya

B5     A
Lets Go

A
How would you feel if I told ya

B5            C#5
On the dance floor

C#5                           
How would you feel if I told ya

B5     A
We can go wherever you want to go

A
How would you feel if I told ya

(You ain't worth the trouble)

by @gustavostein
Suggest correction
comments
print report bad tab
2 comments total.
0 reply
notesonmyguitar 21 Sep 11, 2010 10:38 PM

this is really good! :D

0 reply
insinct 142 Jan 23, 2012 02:12 PM

Great tab man, the only thing I'd say is the A should be played 0-0-2-2-0-0 , just a little thing, otherwise perfect man :D

guest
You may want to rate the tab now too:
select rating
Wanna post a correction for this tab? Suggest correction