Oops, an error
Loading. Please wait.

She Said Tab

version 2
version 2

Whole song

2,481 views 1 this week
no commentswrite comment
1 2 3 4 5
excellent!
x 1
add to favorites
launch autoscroll
font size
0
reset
how to read this tab
guitar tuner
Tab Pro tools
  • play this tab
  • loop segment
  • change instrument
  • show fretboard
  • metronome
Autoscroll
slow
fast
+/-
esc
set tempo
stop
Contributor
Difficulty
intermediate
This is what I gathered from his acoustic video of the song, fairly simple and is 
based entirely around barred chords.

Riff 1 (Verse)

Riff 1


     C#m       A               C#m     A         B         C#m 
E|---------4-----------------------4---------------------------4------|
B|-------5---5-----5-------------5---5-----5---------7-------5---5----|
G|-(66)6---------6-------------6---------6---------8---8---6----------|
D|-------------7-----------------------7---------9--------------------|
A|--------------------------------------------------------------------|
E|--------------------------------------------------------------------| 

    G#m      A        B        F#m
E|-----------------------(7)------------------------------------------|
B|------4--------5--------7--------2----------------------------------|
G|----4---4----6---6----8---8----2------------------------------------|
D|--6--------7--------9--------4--------------------------------------|
A|--------------------------------------------------------------------|
E|--------------------------------------------------------------------| 


Verse

C#m       A   
 Grab ah drink dancin' under flashing lights

C#m        A                            B
 She's ah queen but she wont put up a fight

          C#m               G#m            A           B
Everybody knows that shes a looker but she ain't quite right

     F#m
So I lie through my teeth again

C#m    A
 Been around see I think I know the type

C#m                 A                B
 Honesty is not the policy she likes

       C#m          G#m           A       B
Choice words spoken to her in the heat of night

     F#m
So I lie through my teeth again


Pre Chorus

C#m  A        
  Oh boy would you mind if I got closer

C#m  A                                 B
  Oh boy I can tell you want me dontcha

          C#m                      G#m
And I say what do you think that ah we cant get you

A            B        F#m
Anything you ask for, out on the dance floor...

She said

Chorus 

A
(Ohh do you love me)

                 B          C#m
I wonder why she talks like that
(Oh tell me something)

                         B     A
Tell me how'd you get to be so bad

(Hey I know something you don't)

B
Lets go

C#m                         B
We can go wherever you want to go

A
How would you feel if I told ya
(You ain't worth the trouble)

Riff 1 comes back in after this and you run through the verse and chorus again.


Bridge

E|-------------------------------------------------------------------|
B|-------------------------------------------------------------------|
G|-------------------------------------------------------------------|
D|--11x11x11-x-x-11--6-x-6-6-x-6--7x7x7--9-9-9-9-9-------------------|
A|--11x11x11-x-x-11--6-x-6-6-x-4--7x7x7--9-9-9-9-9-------------------|
E|--9-x9-x9--x-x-9---4-x-4-4-x-4--5x5x5--7-7-7-8-7-------------------| 


The muting on the bridge varies depending on how you feel like playing it.

comments
We did not receive enough feedback on this tab! Please rate:
print report bad tab
1 2 3 4 5
I want to post or [tab]
guest
You may want to rate the tab now too:
select rating
Please do not post tabs as comments. Select "correction" instead!