Oops, an error
Loading. Please wait.

Together With The Sundown Tab

version 1
version 1

Whole song

23,653 views 6 this week
no commentswrite comment
1 2 3 4 5
x 4
add to favorites
launch autoscroll
font size
0
reset
how to read this tab
guitar tuner
Autoscroll
slow
fast
+/-
esc
set tempo
stop
Help us to improve Ultimate-Guitar.com Take our survey!
×
Author
Difficulty
Tuning
novice
D A D G B E
Stephen Jerzak's Together with the sundown from his The Sky High EP.


Verse 1
      I don't even know.          I've never felt this...
E|--------------0---------------0-------------------------------------|
B|--------------------------------------------------------------------|
G|----------7----------------7-----------------7----------------------|
D|------7---------------7----------------7-----------7----------------|
A|---5-------------4--------------------------------------------------|
D|---------------------------------5----------------------------------|

      someone....       you..          sense...
E|--------------------0---------------0-------------------------------|
B|--------------------------------------------------------------------|
G|--------------7-----------------7-----7--------7--------------------|
D|---------7-----------------7----------7----7-------7----------------|
A|----5-----------------4---------------------------------------------|
D|--------------------------------------5-----------------------------|
   
     I...          go...            I'll..
E|--------------0---------------0-------------------------------------|
B|--------------------------------------------------------------------|
G|----------7----------------7-----------------7----------------------|
D|------7---------------7----------------7-----------7----------------|
A|---5-------------4--------------------------------------------------|
D|---------------------------------5----------------------------------|

      long...           love...         too.
E|--------------------0---------------0-------------------------------|
B|--------------------------------------------------------------------|
G|--------------7-----------------7-----7-----------------------------|
D|---------7-----------------7----------7-----------------------------|
A|----5-----------------4---------------------------------------------|
D|--------------------------------------5-----------------------------|

Pre-Chorus

   Just as long as you love me too..
E|-xxx-----0----0------000-----0--------------------------------------|
B|-xxx-----0----0------000-----0--------------------------------------|
G|-xxx-----7----7------777-----7--------------------------------------|
D|-xxx-----7----7------777-----7--------------------------------------|
A|-xxx-----5----5------444-----x--------------------------------------|
D|-xxx-----x----x------xxx-----5--------------------------------------|


Chorus (single strum)

  It's the way that you talk and the way that you smile
          |0|           |0|          |0|
          |0|           |0|          |0|
          |7|           |7|          |7|
          |7|           |7|          |7|
          |5|           |4|          |x|
          |x|           |x|          |5|
  And the way that you love black and white
          |0|         |0|            |0|
          |0|         |0|            |0|
          |7|         |7|            |7|
          |7|         |7|            |7|
          |5|         |4|            |x|
          |x|         |x|            |5|
  Baby, it's the way that you hold my hand in the car
                 |0|          |0|     |0|
                 |0|          |0|     |0|
                 |7|          |7|     |7|
                 |7|          |7|     |7|
                 |5|          |4|     |x|
                 |x|          |x|     |5|
  And the way that we lay in the sand.
          |0|         |0|        |0|
          |0|         |0|        |0|
          |7|         |7|        |7|
          |7|         |7|        |7|
          |5|         |4|        |x|
          |x|         |x|        |5|


Verse 2
      It's not...  See...           That...   
E|--------------0---------------0-------------------------------------|
B|--------------------------------------------------------------------|
G|----------7----------------7-----------------7----------------------|
D|------7---------------7----------------7-----------7----------------|
A|---5-------------4--------------------------------------------------|
D|---------------------------------5----------------------------------|

      Make..            Crazy..
E|--------------------0---------------0-------------------------------|
B|--------------------------------------------------------------------|
G|--------------7-----------------7-----7--------7--------------------|
D|---------7-----------------7----------7----7-------7----------------|
A|----5-----------------4---------------------------------------------|
D|--------------------------------------5-----------------------------|
   
     It takes..    Away...         Gives...
E|--------------0---------------0-------------------------------------|
B|--------------------------------------------------------------------|
G|----------7----------------7-----------------7----------------------|
D|------7---------------7----------------7-----------7----------------|
A|---5-------------4--------------------------------------------------|
D|---------------------------------5----------------------------------|

                        When...            Sleep..
E|--------------------0---------------0-------------------------------|
B|--------------------------------------------------------------------|
G|--------------7-----------------7--------7--------------------------|
D|---------7-----------------7-------------7--------------------------|
A|----5-----------------4---------------------------------------------|
D|-----------------------------------------5--------------------------|

Pre-Chorus

  When you hold me    when you sleep
E|-xxx-----0----0------000-----0--------------------------------------|
B|-xxx-----0----0------000-----0--------------------------------------|
G|-xxx-----7----7------777-----7--------------------------------------|
D|-xxx-----7----7------777-----7--------------------------------------|
A|-xxx-----5----5------444-----x--------------------------------------|
D|-xxx-----x----x------xxx-----5--------------------------------------|


           I never     want to leave.
E|-xxx-----0----0------000-----0--------------------------------------|
B|-xxx-----0----0------000-----0--------------------------------------|
G|-xxx-----7----7------777-----7--------------------------------------|
D|-xxx-----7----7------777-----7--------------------------------------|
A|-xxx-----5----5------444-----x--------------------------------------|
D|-xxx-----x----x------xxx-----5--------------------------------------|


(Repeat Chorus)


And we watched the sun go down.

      |0|         |0|     |0|
      |0|         |0|     |0|
      |7|         |7|     |7|
      |7|         |7|     |7|
      |5|         |4|     |x|
      |x|         |x|     |5|


(Bridge)

Just keep strumming..

      |0|         |0|     |0|
      |0|         |0|     |0|
      |7|         |7|     |7|
      |7|         |7|     |7|
      |5|         |4|     |x|
      |x|         |x|     |5|



(Repeat Chorus)




Comments, questions..?
Email me @ justinmatthewjeremycarlosdomingo@yahoo.com
:)
Suggest correction
comments
print report bad tab
guest
You may want to rate the tab now too:
select rating
Wanna post a correction for this tab? Suggest correction