Oops, an error
Loading. Please wait.

Together With The Sundown Tab

version 4
version 4

Whole song

902 views 1 this week
no commentswrite comment
1 2 3 4 5
3 more votes to show rating
add to favorites
launch autoscroll
font size
0
reset
how to read this tab
guitar tuner
Autoscroll
slow
fast
+/-
esc
set tempo
stop
Help us to improve Ultimate-Guitar.com Take our survey!
×
Author
Difficulty
Tuning
novice
D A D G B E
Together With the Sundown - Stephen Jerzak

Its my fiirst taab , tell me what yoou guys thiink :)
Its not 100% correct, buut I think its pretty close.
Thannks

  I don't even know ,            I've never felt this way before
E|----------------0---------------0-------------------------------------|
B|----------------------------------------------------------------------|
G|----------7----------------7-----------------7------------------------|
D|------7---------------7----------------7-----------7------------------|
A|---5-------------4----------------------------------------------------|
D|---------------------------------5------------------------------------|


  But with someone like you It makes sense
E|----------------0---------------0-------------------------------------|
B|----------------------------------------------------------------------|
G|----------7----------------7-----------------7------------------------|
D|------7---------------7----------------7-----------7------------------|
A|---5-------------4----------------------------------------------------|
D|---------------------------------5------------------------------------|

  And I don't wanna go, Ill stay with you forever Just,
E|----------------0---------------0-------------------------------------|
B|----------------------------------------------------------------------|
G|----------7----------------7-----------------7------------------------|
D|------7---------------7----------------7-----------7------------------|
A|---5-------------4----------------------------------------------------|
D|---------------------------------5------------------------------------|

  as long as you love me too
E|----------------0---------------0-------------------------------------|
B|----------------------------------------------------------------------|
G|----------7----------------7-----------------7------------------------|
D|------7---------------7----------------7-----------7------------------|
A|---5-------------4----------------------------------------------------|
D|---------------------------------5------------------------------------|

 D              A            G
Just as long as you love me too
D                     A                G
It's the way that you talk, and the way that you smile
        D            A              G
and the way that you love black and white
        D                A                       G
Baby it's the way that you hold my hand in the car,
            D         A         G
and the way that we lie in the sand
      D        A        G
And we watch the sun go down

  It's not that hard to see , That a single day without you could,
E|----------------0---------------0-------------------------------------|
B|----------------------------------------------------------------------|
G|----------7----------------7-----------------7------------------------|
D|------7---------------7----------------7-----------7------------------|
A|---5-------------4----------------------------------------------------|
D|---------------------------------5------------------------------------|

  make me go crazy
E|----------------0---------------0-------------------------------------|
B|----------------------------------------------------------------------|
G|----------7----------------7-----------------7------------------------|
D|------7---------------7----------------7-----------7------------------|
A|---5-------------4----------------------------------------------------|
D|---------------------------------5------------------------------------|

  it takes my breath away, it gives me butterflies
E|----------------0---------------0-------------------------------------|
B|----------------------------------------------------------------------|
G|----------7----------------7-----------------7------------------------|
D|------7---------------7----------------7-----------7------------------|
A|---5-------------4----------------------------------------------------|
D|---------------------------------5------------------------------------|

  When you hold me when you sleep
E|----------------0---------------0-------------------------------------|
B|----------------------------------------------------------------------|
G|----------7----------------7-----------------7------------------------|
D|------7---------------7----------------7-----------7------------------|
A|---5-------------4----------------------------------------------------|
D|---------------------------------5------------------------------------|
 D              A          G
When you hold me in your sleep
D         A         G
I never want you to leave
D                     A                G
It's the way that you talk, and the way that you smile
        D            A              G
and the way that you love black and white
        D                A                       G
Baby it's the way that you hold my hand in the car,
            D         A         G
and the way that we lay in the sand
      D        A        G
And we watch the sun go down

Woah . . .
D A G

D                     A                G
It's the way that you talk, and the way that you smile
        D            A              G
and the way that you love black and white
        D                A                       G
Baby it's the way that you hold my hand in the car,
            D         A         G
and the way that we lay in the sand
      D        A        G
And we watch the sun go down
  D            A              G
The way that our noses brush together
   D         A               G
as I kissed you in the starlight
  D          A         G ~ (LET IT RING)
That night changed my life.
Suggest correction
Give kudos to tab author, rate the tab!
1 2 3 4 5
comments
print report bad tab
guest
You may want to rate the tab now too:
select rating
Wanna post a correction for this tab? Suggest correction