Oops, an error
Loading. Please wait.

White Horse Tab

15,771 views 3 this week
2 commentsread comments
1 2 3 4 5
excellent!
x 6
add to favorites
launch autoscroll
font size
0
reset
how to read this tab
guitar tuner
Tab Pro tools
  • play this tab
  • loop segment
  • change instrument
  • show fretboard
  • metronome
×
Best way to learn
"White Horse"
Autoscroll
slow
fast
+/-
esc
set tempo
stop
Difficulty
intermediate
White Horse - Stephen Jerzak

Standard Tuning


(Intro)

|--------3-----------3-----------3-----------3------|
|--1-1-----1----1-1----1----1-1----1----1-1----1----|
|---------------------------------------------------|
|------------0--3-3------2-----------2--3-3------0--|
|--3-3----------------------0-0---------------------|
|---------------------------------------------------| (x2)

(Verse)
Say you're sorry, that face of an angel comes out just when you need it to
|--------3-----------3-----------3-----------3------|
|--1-1-----1----1-1----1----1-1----1----1-1----1----|
|---------------------------------------------------|
|------------0--3-3------2-----------2--3-3------0--|
|--3-3----------------------0-0---------------------|
|---------------------------------------------------|

As I paced back and forth all this time 'cause I honestly believed in you
|--------3-----------3-----------3-----------3------|
|--1-1-----1----1-1----1----1-1----1----1-1----1----|
|---------------------------------------------------|
|------------0--3-3------2-----------2--3-3------0--|
|--3-3----------------------0-0---------------------|
|---------------------------------------------------|

Holding on the days drag on stupid girl, you should've known you should've know
|-------3-----------3-----------------------3--|
|--1-1----1----1-1----1------1/2---1/2---1--3--|
|--------------------------0-----0-----0----0--|
|-----------2--3-3------0-------------------0--|
|--0-0--------------------------------------2--|
|-------------------------------------------3--|

(Strumming patterns not included)

(Chorus)
That you're not a princess, This ain't a fairytale, you're not the one you'll sweep off your feet 
|--3--------------------3------------------------3----------------|
|--1--------------------1------------------------1----------------|
|--0--------------------2------------------------2----------------|
|--2--------------------2------------------------3----------------|
|--3--------------------0------------------------0----------------|
|--0--------------------0------------------------x----------------|

Lead you up the stairwell, This ain't Hollywood, This is a small town,
|--3---------------------------3---------------------3------------|
|--3---------------------------1---------------------1------------|
|--0---------------------------0---------------------2------------|
|--0---------------------------2---------------------2------------|
|--2---------------------------3---------------------0------------|
|--3---------------------------0---------------------0------------|

I was a dreamer before you went and let you down
|--3----------------------------------3--------------|
|--1----------------------------------3--------------|
|--2----------------------------------0--------------|
|--3----------------------------------0--------------|
|--0----------------------------------2--------------|
|--x----------------------------------3--------------|

Now it's too late for me and my white horse, to come around
    |----3-------------3------------3----|
    |----1-------------3------------1----|
    |----2-------------0------------2----|
    |----2-------------0------------3----|
    |----0-------------2------------0----|
    |----0-------------3------------x----|

|-------3------------3------|
|--1-1----1-----1-1----1----|
|-----------0------------0--|
|---------------------------|
|--3-3----------3-3---------|
|---------------------------|


(Verse)
Baby I was naive, got lost in your eyes and never really had a chance
|--3-------------3--------------------------3------------------------3--|
|--1-------------1--------------------------1------------------------1--|
|--0-------------2--------------------------2------------------------2--|
|--2-------------3--------------------------2------------------------3--|
|--3-------------0--------------------------0------------------------0--|
|--0-------------x--------------------------0------------------------x--|

My mistake, I didn't know to be in love. had to fight to have the upper hand
|--3------------------3----------------------------3---------------------------3--|
|--1------------------1----------------------------1---------------------------1--|
|--0------------------2----------------------------2---------------------------2--|
|--2------------------3----------------------------2---------------------------3--|
|--3------------------0----------------------------0---------------------------0--|
|--0------------------x----------------------------0---------------------------x--|

I had so many dreams about you and me happy endings, Well now I know
|--3-----------------------3----------------3------------|
|--1-----------------------1----------------3------------|
|--2-----------------------2----------------0------------|
|--2-----------------------3----------------0------------|
|--0-----------------------0----------------2------------|
|--0-----------------------x----------------3------------|


(Chorus)
that you're a princess, This ain't a fairytale, 'Cause you're the one you'll sweep off your feet 
|--3--------------------3------------------------3----------------|
|--1--------------------1------------------------1----------------|
|--0--------------------2------------------------2----------------|
|--2--------------------2------------------------3----------------|
|--3--------------------0------------------------0----------------|
|--0--------------------0------------------------x----------------|

Lead you up the stairwell, This ain't Hollywood, This is a small town,
|--3---------------------------3---------------------3------------|
|--3---------------------------1---------------------1------------|
|--0---------------------------0---------------------2------------|
|--0---------------------------2---------------------2------------|
|--2---------------------------3---------------------0------------|
|--3---------------------------0---------------------0------------|


I was a dreamer before you went and let you down
|--3----------------------------------3--------------|
|--1----------------------------------3--------------|
|--2----------------------------------0--------------|
|--3----------------------------------0--------------|
|--0----------------------------------2--------------|
|--x----------------------------------3--------------|


Now it's too late for me and my white horse, to come around
    |----3-------------3------------3--------------|
    |----1-------------3------------1--------------|
    |----2-------------0------------2--------------|
    |----2-------------0------------3--------------|
    |----0-------------2------------0--------------|
    |----0-------------3------------x--------------|


|--3------3------3------3--|
|--1------1------1------3--|
|--0------2------2------0--|
|--2------2------3------0--|
|--3------0------0------2--|
|--0------0------x------3--|


(Bridge)
    And there I am on my knees, begging for forgivness,   begging you please
|--3----3---------3------3-----3----3-------3-------3------3--3------|
|--1----1---------3------3-----1----1-------1-------3------3--1------|
|--2----2---------0------0-----2----0-------0-------0------0--2------|
|--2----2---------0------0-----3----2-------2-------0------0--3------|
|--0----0---------2------2-----0----3-------3-------2------2--0------|
|--0----0---------3------3-----x----0-------0-------3------3--x------|

    Just like I always wanted, but I'm so sorry
|--3------------3-------------3------------x------|
|--1------------3-------------1------------3------|
|--2------------0-------------2------------3------|
|--2------------0-------------3------------3------|
|--0------------2-------------0------------1------|
|--0------------3-------------x------------x------|


(Chorus)
Cause you're not my princess, this ain't a fairytale
                  |------3------3---------------3------3------------|
                  |----1------1------1--------1------1------1-------|
                  |-------------------------------------------------|
                  |--3------3------3--------0------0------0---------|
                  |-------------------------------------------------|
                  |-------------------------------------------------| 

Your gonna find someone someday who might actually treat you well
      |------3------3------------------------3------3--------|
      |----1------1------1-----------------3------3------3---|
      |------------------------------------------------------|
      |--3------3------3-------------------------------------|
      |------------------------------------------------------|
      |----------------------------------3------3------3-----|

This is a big world, that was a small town 
       |--3---------------------3---------|
       |--1---------------------1---------|
       |--0---------------------2---------|
       |--2---------------------2---------|
       |--3---------------------0---------|
       |--0---------------------0---------|

There in my rearview mirror disappearing now
  |----------3-------------------3----------|
  |----------1-------------------3----------|
  |----------2-------------------0----------|
  |----------3-------------------0----------|
  |----------0-------------------2----------|
  |----------x-------------------3----------|

And it's too late for me and my white horse
    |----3-------------3------------3--------------|
    |----1-------------3------------1--------------|
    |----2-------------0------------2--------------|
    |----2-------------0------------3--------------|
    |----0-------------2------------0--------------|
    |----0-------------3------------x--------------|

Now it's too late for you and your white horse
    |----3-------------3------------3--------------|
    |----1-------------3------------1--------------|
    |----2-------------0------------2--------------|
    |----2-------------0------------3--------------|
    |----0-------------2------------0--------------|
    |----0-------------3------------x--------------|

To catch you now,  Whoa, try and catch you 
    |-----3------3---3-----3---|
    |-----1------1---1-----1---|
    |-----0------2---2-----2---|
    |-----2------3---2-----3---|
    |-----3------0---0-----0---|
    |-----0------x---0-----x---|

Now, Oh, it's too late to catch you now
|-3-----3---3-------------3---------------3--|
|-1-----1---1-------------1---------------1--|
|-0-----2---2-------------2---------------0--|
|-2-----3---2-------------3---------------2--|
|-3-----0---0-------------0---------------3--|
|-0-----x---0-------------x---------------0--|




:"a.g"
comments
print report bad tab
2 comments total.
0 reply
volcom911 wrote on March 23 2010, 11:14 pm

badass tab

0 reply
Apath3t1cem0 wrote on May 11 2010, 05:28 am

good tabs.
can someone convert to chords so it's easier to follow along?

I want to post or [tab]
guest
You may want to rate the tab now too:
select rating
Please do not post tabs as comments. Select "correction" instead!