Oops, an error
Loading. Please wait.

Such A Way tab

version 2
version 2

Whole song

7,567 views 9 this week
2 commentsread comments
1 2 3 4 5
x 5
add to favorites
×
Save as Personal and add changes to this tab that will be seen only by you. Learn more ›
×
You can save this tab as Personal to edit and correct it or add notes. All changes will be seen only by you. Learn more »
launch autoscroll
font size
0
reset
how to read this tab
guitar tuner
edit
Autoscroll
slow
fast
+/-
esc
set tempo
stop
“Such A Way”  (Easy Acoustic Version)
Originally by: Stephen Kellogg
Tabbed by: Scott Dillon

This is my first tab, It sounds pretty good. I can't quite figure out the end of the song, sorry.

*Capo 3*                    THESE AREN’T NORMAL CHORDS, PLAY THEM AS I WROTE THEM

   C     F     G    Am   Em    Dm     Am2   C2    G2
e: 3     3     3     0    0     1      3     0     0
B: 1     1     0     1    0     3      1     3     3
G: 0     2     0     2    0     2      0     0     0
D: 2     3     0     2    2     0      2     X     X
A: 3     X     2     0    2     X      0     3     2
E: X     X     3     X    0     X      X     X     X

e|--------------------------------------------------------------------|
B|--------------------------------------------------------------------|
G|--------0-0h2--0--------------------------0--0h2-0------------------|
D|------2------------0h2--0-0-0-0h2-------2-----------0h2-0-0---------|
A|--3-3-------------------------------3-3----------------------33-----|
E|--------------------------------------------------------------------|

         C            F                G                Am
Well the girls in California, they all look the same to me
C                     F        G             C
The way they take for granted, livin’ by the sea
C                     Em             F                Dm
They can be your best friend, if you don’t expect too much
          C         F            G              C
Cause the girls California, They all believe in love

(C  F G C)

  C                   F        G                 Am
I met this girl named Liz in a bar just south of here
       C              F            G         C
She moved to New York City so that she could disappear
      C                  Em               F                  Dm
And I told her she was beautiful, and she thanked me for the words
       C          F              G                 C
I will never understand just how he got through to her

Am2         G             F
Cause she moves in such a way
     C2             G2            F
That people fall in love with her every single day
      Am2           G                       F
And I can’t say I’m immune though I’ve been tryin’ to find you
      C2                   G2        F
And I know she’s out there somewhere today

             C                          F                 G           Am
But then the woman down the street from me she’s got this daughter of 20 years
       C            F              G               C
With a shorn-kissed smile that the winter won’t go near
        C                  Em                F                  Dm
And her hips could shake a mountain, and her lips could start a fire
          C                  F                        G       C
Just like Nabakov, all these men walk by, and as they do they conspire

Am2         G             F
Cause she moves in such a way
     C2             G2            F
That people fall in love with her every single day
      Am2           G                       F
And I can’t say I’m immune though I’ve been tryin’ to fut through
        C2                G2                F
Through all this lust and all this love in me

e|--------------------------------------------------------------------|
B|--------------------------------------------------------------------|
G|--------0-0h2--0--------------------------0--0h2-0------------------|
D|------2------------0h2--0-0-0-0h2-------2-----------0h2-0-0---------|
A|--3-3-------------------------------3-3----------------------33-----|
E|--------------------------------------------------------------------|

     C                      F                   G                Am
Then there’s this girl from Greenwich, she just stopped me in my tracks
    C                 F              G               C
She tells me when I’m wrong, and she always makes me laugh
       C              Em         F           Dm
And of all the pretty women that I see every day,
C              F       G               C
She’s the only one who moves in such a way


Am2       G               F
Cause she moves in such a way
     C2              G2            F
That I still fall in love with her every single day
      Am2           G                        F
And I can’t say I’m immune, though I’ve been tryin’ to show you
                   C2                            G2            F
Ahh that you could have my heart, that you could take my heart today
                      C2                            G2            F
That Darlin you could have my heart, you could just take my heart away

And then she comes and she lifts me up

She lifts me up every single day

Yeah Ah yeah yeah

e|--------------------------------------------------------------------|
B|--------------------------------------------------------------------|
G|--------0-0h2--0--------------------------0--0h2-0------------------|
D|------2------------0h2--0-0-0-0h2-------2-----------0h2-0-0---------|
A|--3-3-------------------------------3-3----------------------33-----|
E|--------------------------------------------------------------------|

            
            
Suggest correction
Creating personal tab
Creating personal tab
You can edit any tab online and save it as your Personal.

You can edit, replace or remove any tab part or add personal notes – all changes will be seen only by you.

Personal tabs can be accessed anytime from any device, even offline.
Learn more »
comments
print report bad tab
2 comments total.
+1 reply
BoomerB04 104 Apr 22, 2008 01:44 PM

Intro riff was just missing one note... The first part it goes back down to the A string 3rd fret quick. Also sounds better with capo on 2nd fret... it seems to match the song more that way. Otherwise... excellent tab, much better than i could do
e|--------------------------------------------------------------------|
B|--------------------------------------------------------------------|
G|--------0-0h2--0---------------------------0--0h2-0------------------|
D|------2------------0h2--0-0-0--0h2-------2-----------0h2-0-0---------|
A|--3-3-------------------------3------3-3----------------------33-----|
E|--------------------------------------------------------------------|

+1 reply
elementcruza556 10 Oct 09, 2008 03:01 AM

bravo bravo thank u so much

guest
Wanna post a correction for this tab? Suggest correction