Oops, an error
Loading. Please wait.

Crazy Peanuts Lead Guitar Tab

768 views 1 this week
no commentswrite comment
1 2 3 4 5
please rate
add to favorites
launch autoscroll
font size
0
reset
how to read this tab
guitar tuner
Autoscroll
slow
fast
+/-
esc
set tempo
stop
Help us to improve Ultimate-Guitar.com Take our survey!
×
Author
Difficulty
intermediate
 SAMPLE TRACK                                                                     Lead Guitar
    by Go PlayAlong


    4/4, 95 bpm

   G6              Bbaug         Am7            D7             G6        Bbaug             
E|-----------------------------|-----------------------------|-----------------------------|
B|-----------------------------|------------------------108--|-7h8---7-8-10----------------|
G|-----------------4----4-4-5--|----7p5-x-7-9-7~~-----7------|-----9----------7-7---7p6-7--|
D|---4h5p4---4-5-7-------------|-----------------------------|-----------------------------|
A|---------7-------------------|-----------------------------|-----------------------------|
E|-----------------------------|-----------------------------|-----------------------------|


   Am7              D7             B9(#9)                         E9(#9)                  
E|-------------------------------|-------------------------8----|-7-----7-7-8-10~~--------|
B|-8-----------------------------|------------------------------|-------------------------|
G|----5---5---4b4pb~~-----7-9-7--|-10----101010109h107-9-9------|-------------------------|
D|-------------------------------|------------------------------|-------------------------|
A|-------------------------------|------------------------------|-------------------------|
E|-------------------------------|------------------------------|-------------------------|


   A9(#9)                             D9(#9)                                         
E|----------------------------------|------------------------------------------------|
B|-------8---8-7h8p7p5-7-8-1010-----|-8p----7p5-------8p7p5-------8p7p5--------------|
G|-------------------------------9--|-----------7p5p4-------7p5p4-------7-4-5-4-2-0--|
D|-----------------------------10---|------------------------------------------------|
A|----------------------------------|------------------------------------------------|
E|----------------------------------|------------------------------------------------|


   G6              Bbaug           Am7              D7           G6                   
E|-------------------------------|-----------------------------|-----------12---------|
B|-------------------------------|----------------------10108~-|-~-----------121110---|
G|-----------------4----4-4-5-5--|-7--7---7---9---7~~----------|-------------------9--|
D|---4h5p4---4-5-7---------------|-----------------------------|----------------------|
A|---------7---------------------|-----------------------------|----------------------|
E|-------------------------------|-----------------------------|----------------------|


   G6            Bbaug               Am7               D7               
E|---------------------------------|---------------------8p7---7-8---10-|
B|-8-8-8---------------------------|-----------------8-10----8----------|
G|-------9-7--------------------5--|-----------7-8h9--------------------|
D|-----------9-7-5----5-----5-7----|-9p-7-10p9--------------------------|
A|----------------------6h7--------|------------------------------------|
E|---------------------------------|------------------------------------|


   G6          Bbaug           Am7                D7           B9(#9)                       
E|---------108---------------|-------------------------------|------------------------------|
B|---8-8------------7-7~~----|-------------------------------|---------------------8-8-8----|
G|---------------------------|-------------------------------|---------------7-9------------|
D|---------------------------|--------5-8p7p5---5-8-8-7~~----|-----------5-9----------------|
A|---------------------------|----5h7---------7--------------|-------5h7--------------------|
E|---------------------------|-------------------------------|------------------------------|


   E9(#9)                             A9(#9)                     
E|----------------------------------|----------------------------|
B|-5h----6---5-6-8---6---5---5------|-------------7-8-10---------|
G|---------7------------------------|-4-----5-7-9-------7-7~~----|
D|----------------------------------|----------------------------|
A|----------------------------------|----------------------------|
E|----------------------------------|----------------------------|


   D9(#9)                                           G6              Bbaug       
E|------------------------------------------------|-----------------------------|
B|-8p----7p5-------8p7p5-------8p7p5--------------|-----------------------------|
G|-----------7p5p4-------7p5p4-------7-4-5-4-2-0--|-----------------4----4-4-5--|
D|------------------------------------------------|---4h5p4---4-5-7-------------|
A|------------------------------------------------|---------7-------------------|
E|------------------------------------------------|-----------------------------|




x    = dead note
/    = slide up
\    = slide dn
h    = hammer on
p    = pull off
~    = vibrato
b    = bend
br   = bend and release
pb   = pre bend
pbr  = pre bend and release
Suggest correction
Give kudos to tab author, rate the tab!
1 2 3 4 5
comments
print report bad tab
guest
You may want to rate the tab now too:
select rating
Please do not post tabs as comments. Select "correction" instead!