Oops, an error
Loading. Please wait.

Dr Stephen Extended Tab

5,220 views 1 this week
no commentswrite comment
1 2 3 4 5
please rate
add to favorites
launch autoscroll
font size
0
reset
how to read this tab
guitar tuner
Tab Pro tools
  • play this tab
  • loop segment
  • change instrument
  • show fretboard
  • metronome
×
Best way to learn
"Dr Stephen Extended"
Autoscroll
slow
fast
+/-
esc
set tempo
stop
Contributor
Difficulty
intermediate
××××××××××××××××××××××××××××××××××××××××××××××××××××××××××××××××××××××××××××××××
                   D r .   S t e p h e n   [ E X T E N D E D ]
                            S T E P H E N   L Y N C H
××××××××××××××××××××××××××××××××××××××××××××××××××××××××××××××××××××××××××××××××


   +--------------------------PLEASE NOTE--------------------------+
   + This file is Jordan Lapping’s own work and represents his     +
   + interpretation of the song. You may only use this file for    +
   + private study, scholarship, or research. The contents may not +
   + be duplicated for use with other websites without written     +
   + permission. Thank you for understanding. Enjoy.               +
   +---------------------------------------------------------------+


Tabbed by Jordan Lapping

Standard E Tuning


 CHORDS USED:
     A    A#
e]---0----0---|
B]---2----3---|
G]---2----3---|
D]---2----3---|
A]---0----0---|
E]------------|


 TABLATURE LEGEND:
(h) = hammer-on
(p) = pull-off
(/) = slide
(~) = let it ring
(^) = vibrato
N/C = No Chord


 INTRO:
    A    A#  A    A#  A    A#
e]----------------------------------------|
B]--2-2-2/3--2-2-2/3--2-2-2/3--3-2--------|
G]--2-2-2/3--2-2-2/3--2-2-2/3------3-2----|
D]-------------------------------------3--|
A]--0-0-0----0-0-0----0-0-0---------------|
E]----------------------------------------|

    A    A#  A    A#  A    A#
e]------------------------------------------------|
B]--2-2-2/3--2-2-2/3--2-2-2/3----------2h3p2h3p2--|
G]--2-2-2/3--2-2-2/3--2-2-2/3------2-3------------|
D]-----------------------------2-3----------------|
A]--0-0-0----0-0-0----0-0-0-----------------------|
E]------------------------------------------------|

    A    A#  A    A#  A    A#
e]----------------------------------------|
B]--2-2-2/3--2-2-2/3--2-2-2/3-------------|
G]--2-2-2/3--2-2-2/3--2-2-2/3-------------|
D]----------------------------------------|
A]--0-0-0----0-0-0----0-0-0---------------|
E]-----------------------------6^^^^^^^^--|

    A    A#  A    A#  A    A#  A
e]--------------------------------|
B]--2-2-2/3--2-2-2/3--2-2-2/3--2--|
G]--2-2-2/3--2-2-2/3--2-2-2/3--2--|
D]--------------------------------|
A]--0-0-0----0-0-0----0-0-0----0--|
E]--------------------------------|


 VERSE 1:
    A    A#  A    A#  A    A#  A    A#
e]--------------------------------------|
B]--2-2-2/3--2-2-2/3--2-2-2/3--2-2-2/3--|
G]--2-2-2/3--2-2-2/3--2-2-2/3--2-2-2/3--|
D]--------------------------------------|
A]--0-0-0----0-0-0----0-0-0----0-0-0----|
E]--------------------------------------|

    A    A#  A    A#  A    A#  A
e]--------------------------------|
B]--2-2-2/3--2-2-2/3--2-2-2/3--2--|
G]--2-2-2/3--2-2-2/3--2-2-2/3--2--|
D]--------------------------------|
A]--0-0-0----0-0-0----0-0-0----0--|
E]--------------------------------|

       A          A#   A    A#  A            A#   A   A#
I'm a rich and famous doctor, always thought I'd be
    A         A#   A      A#  A
An expert in the field of... Gynaecology


 VERSE 2: [Tap Guitar Twice]
    A     A#  A     A#  A     A#  A    A#
e]--0---0-0---0---0-0---0---0-0---0-0-0~~~--|
B]--2---2-3---2---2-3---2---2-3---2-2-2/3~--|
G]--2---2-3---2---2-3---2---2-3---2-2-2/3~--|
D]--2-2-2-3---2-2-2-3---2-2-2-3---2-2-2/3~--|
A]--0-0---0---0-0---0---0-0---0---0-0-0~~~--|
E]----0---------0---------0-----------------|

    A     A#  A     A#  A     A#  A
e]--0---0-0---0---0-0---0---0-0---0--|
B]--2---2-3---2---2-3---2---2-3---2--|
G]--2---2-3---2---2-3---2---2-3---2--|
D]--2-2-2-3---2-2-2-3---2-2-2-3---2--|
A]--0-0---0---0-0---0---0-0---0---0--|
E]----0---------0---------0----------|

 A             A#    A                A#
Next on my agenda: checking your pudenda
 A                 A#   A / A#
Let me see what I can find
 A                    A#    A                  A#
If you get your nerve up, slip inside the stirrups
 A                        A#  A 
Single thought will cross my mind


 CHORUS 1:
    A     A#  A     A#  A     A#  A     A#
e]--0-0000-0--0-0000-0--0-0000-0--0-00-0-0--|
B]--2-2222/3--2-2222/3--2-2222/3--2-22-2/3--|
G]--2-2222/3--2-2222/3--2-2222/3--2-22-2/3--|
D]--2-2222/3--2-2222/3--2-2222/3--2-22-2/3--|
A]--0-0000-0--0-0000-0--0-0000-0--0-00-0-0--|
E]------------------------------------------|

    A     A#  A     A#  A     A#  A
e]--0-0000-0--0-0000-0--0-0000-0--0--|
B]--2-2222/3--2-2222/3--2-2222/3--2--|
G]--2-2222/3--2-2222/3--2-2222/3--2--|
D]--2-2222/3--2-2222/3--2-2222/3--2--|
A]--0-0000-0--0-0000-0--0-0000-0--0--|
E]-----------------------------------|

N/C    A  A#  A  A#       A            A#  A
I love puuuuuuuuuuutting women's minds at rest
   A#  A  A#  A  A#       A            A#  A
I love puuuuuuuuuuushing myself to be the best
N/C
Dr. Stephen's in


 INTERLUDE:
    A    A#  A    A#  A    A#
e]-------------------------------12--|
B]--2-2-2/3--2-2-2/3--2-2-2/3--------|
G]--2-2-2/3--2-2-2/3--2-2-2/3--------|
D]-----------------------------------|
A]--0-0-0----0-0-0----0-0-0----------|
E]-----------------------------------|

    A    A#  A    A#  A    A#  A
e]--------------------------------|
B]--2-2-2/3--2-2-2/3--2-2-2/3--2--|
G]--2-2-2/3--2-2-2/3--2-2-2/3--2--|
D]--------------------------------|
A]--0-0-0----0-0-0----0-0-0----0--|
E]--------------------------------|


 VERSE 3:
    A    A#  A    A#  A    A#  A    A#
e]--------------------------------------|
B]--2-2-2/3--2-2-2/3--2-2-2/3--2-2-2/3--|
G]--2-2-2/3--2-2-2/3--2-2-2/3--2-2-2/3--|
D]--------------------------------------|
A]--0-0-0----0-0-0----0-0-0----0-0-0----|
E]--------------------------------------|

    A    A#  A    A#  A    A#  A
e]--------------------------------|
B]--2-2-2/3--2-2-2/3--2-2-2/3--2--|
G]--2-2-2/3--2-2-2/3--2-2-2/3--2--|
D]--------------------------------|
A]--0-0-0----0-0-0----0-0-0----0--|
E]--------------------------------|

A           A#  A     A#      A         A#  A   A#
I've got magic fingers; the "Doctor of The Year"
         A          A# A         A#     A  N/C
There's not a lip that I can't read, a pap that I can't smear...


 VERSE 4: [Tap Guitar Twice]
    A     A#  A     A#  A     A#  A    A#
e]--0---0-0---0---0-0---0---0-0---0-0-0~~~--|
B]--2---2-3---2---2-3---2---2-3---2-2-2/3~--|
G]--2---2-3---2---2-3---2---2-3---2-2-2/3~--|
D]--2-2-2-3---2-2-2-3---2-2-2-3---2-2-2/3~--|
A]--0-0---0---0-0---0---0-0---0---0-0-0~~~--|
E]----0---------0---------0-----------------|

    A     A#  A     A#  A     A#  A
e]--0---0-0---0---0-0---0---0-0---0--|
B]--2---2-3---2---2-3---2---2-3---2--|
G]--2---2-3---2---2-3---2---2-3---2--|
D]--2-2-2-3---2-2-2-3---2-2-2-3---2--|
A]--0-0---0---0-0---0---0-0---0---0--|
E]----0---------0---------0----------|

 A                   A# A               A#
When your legs are open I begin the gropin'
 A                A#   A / A#
But I fear I must be blunt
A                     A#  A                     A#
I would just as soon not go near your balloon knot
  A                       A#  A  N/C
Think that I'll stick to your... front


 CHORUS 2:
    A     A#  A     A#  A     A#  A     A#
e]--0-0000-0--0-0000-0--0-0000-0--0-00-0-0--|
B]--2-2222/3--2-2222/3--2-2222/3--2-22-2/3--|
G]--2-2222/3--2-2222/3--2-2222/3--2-22-2/3--|
D]--2-2222/3--2-2222/3--2-2222/3--2-22-2/3--|
A]--0-0000-0--0-0000-0--0-0000-0--0-00-0-0--|
E]------------------------------------------|

    A     A#  A     A#  A     A#  A
e]--0-0000-0--0-0000-0--0-0000-0--0--|
B]--2-2222/3--2-2222/3--2-2222/3--2--|
G]--2-2222/3--2-2222/3--2-2222/3--2--|
D]--2-2222/3--2-2222/3--2-2222/3--2--|
A]--0-0000-0--0-0000-0--0-0000-0--0--|
E]-----------------------------------|

 A        A#        A                 A#       A             A#   A    A#
Yeaaaaaaaaaaah! I know you're scared, so I'll try not to get too deep
 A        A#           A        A# A               A#  A
Yeaaaaaaaaaaah! But if I were you, I wouldn't fall asleep
N/C
'Cause Dr. Stephen's in!


 INTERLUDE:
    A    A#  A    A#  A    A#  A
e]--------------------------------|
B]--2-2-2/3--2-2-2/3--2-2-2/3--2--|
G]--2-2-2/3--2-2-2/3--2-2-2/3--2--|
D]--------------------------------| (x2)
A]--0-0-0----0-0-0----0-0-0----0--|
E]--------------------------------|


 VERSE 5:
    A    A#  A    A#  A    A#  A    A#
e]--------------------------------------|
B]--2-2-2/3--2-2-2/3--2-2-2/3--2-2-2/3--|
G]--2-2-2/3--2-2-2/3--2-2-2/3--2-2-2/3--|
D]--------------------------------------|
A]--0-0-0----0-0-0----0-0-0----0-0-0----|
E]--------------------------------------|

    A    A#  A    A#  A    A#  A
e]--------------------------------|
B]--2-2-2/3--2-2-2/3--2-2-2/3--2--|
G]--2-2-2/3--2-2-2/3--2-2-2/3--2--|
D]--------------------------------|
A]--0-0-0----0-0-0----0-0-0----0--|
E]--------------------------------|

  A                A#   A    A#   A            A#  A      A#
Obstetrics is too much labour, urologists make me pissed
     A          A#  A          A#  A
Proctologists only use one finger...


 VERSE 6: [Tap Guitar Twice]
    A     A#  A     A#  A     A#  A    A#
e]--0---0-0---0---0-0---0---0-0---0-0-0~~~--|
B]--2---2-3---2---2-3---2---2-3---2-2-2/3~--|
G]--2---2-3---2---2-3---2---2-3---2-2-2/3~--|
D]--2-2-2-3---2-2-2-3---2-2-2-3---2-2-2/3~--|
A]--0-0---0---0-0---0---0-0---0---0-0-0~~~--|
E]----0---------0---------0-----------------|

    A     A#  A     A#  A     A#  A
e]--0---0-0---0---0-0---0---0-0---0--|
B]--2---2-3---2---2-3---2---2-3---2--|
G]--2---2-3---2---2-3---2---2-3---2--|
D]--2-2-2-3---2-2-2-3---2-2-2-3---2--|
A]--0-0---0---0-0---0---0-0---0---0--|
E]----0---------0---------0----------|

 A               A#   A                 A#
Gimme, gimme, gimme shimmy, shimmy, shimmy
 A                A#   A / A#
Up into my brand new chair
 A               A#    A                   A#
Open up and say "Ah", for this 'Docter Player'
   A                        A#  A  N/C
I like the way you've done your... hair


 CHORUS 3:
    A     A#  A     A#  A     A#  A     A#
e]--0-0000-0--0-0000-0--0-0000-0--0-00-0-0--|
B]--2-2222/3--2-2222/3--2-2222/3--2-22-2/3--|
G]--2-2222/3--2-2222/3--2-2222/3--2-22-2/3--|
D]--2-2222/3--2-2222/3--2-2222/3--2-22-2/3--|
A]--0-0000-0--0-0000-0--0-0000-0--0-00-0-0--|
E]------------------------------------------|

    A     A#  A     A#  A     A#  A
e]--0-0000-0--0-0000-0--0-0000-0--0--|
B]--2-2222/3--2-2222/3--2-2222/3--2--|
G]--2-2222/3--2-2222/3--2-2222/3--2--|
D]--2-2222/3--2-2222/3--2-2222/3--2--|
A]--0-0000-0--0-0000-0--0-0000-0--0--|
E]-----------------------------------|

 A        A#     A            A#  A             A#  A    A#
Yeaaaaaaaaaaah! Four outa five - patients would agree
 A        A#       A        A#  A        A#   A
Yeaaaaaaaaaaaaaaaaaaah! I am a vaginal V.I.P.
N/C
'Cause Dr. Stephen's here!


 INTERLUDE:
    A    A#  A    A#  A    A#  A
e]--------------------------------|
B]--2-2-2/3--2-2-2/3--2-2-2/3--2--|
G]--2-2-2/3--2-2-2/3--2-2-2/3--2--|
D]--------------------------------| (x2)
A]--0-0-0----0-0-0----0-0-0----0--|
E]--------------------------------|


 BRIDGE:
    A    A#  A    A#  A    A#  A
e]--------------------------------|
B]--2-2-2/3--2-2-2/3--2-2-2/3--2--|
G]--2-2-2/3--2-2-2/3--2-2-2/3--2--|
D]--------------------------------| (x3)
A]--0-0-0----0-0-0----0-0-0----0--|
E]--------------------------------|

    A    A#  A
e]--------------|
B]--2-2-2/3--2--|
G]--2-2-2/3-----|
D]--------------|
A]--0-0-0----0--|
E]--------------|

 A    A#  A    A#  A    A#  A  N/C
.............................. Speculum
 A    A#  A    A#  A    A#  A  N/C
.............................. Forceps
 A    A#  A    A#  A    A#  A     N/C
................................. Shoehorn?
 A    A#  A
............


 OUTRO:
    A
e]--0-0-0-0-0--|
B]--2-2-2-2-2--|
G]--2-2-2-2-2--|
D]--2-2-2-2-2--|
A]--0-0-0-0-0--|
E]-------------|
 A
Dr. Stephen's in!



××××××××××××××××××××××××××××××××××××××××××××××××××××××××××××××××××××××××××××××××

××××××××××××××××××××××××××××××××××××××××××××××××××××××××××××××××××××××××××××××××
comments
We did not receive enough feedback on this tab! Please rate:
print report bad tab
1 2 3 4 5
I want to post or [tab]
guest
You may want to rate the tab now too:
select rating
Please do not post tabs as comments. Select "correction" instead!