Oops, an error
Loading. Please wait.

Dr Stephen Tab

version 2
version 2

Whole song

Interactive

10,635 views 9 this week
no commentswrite comment
1 2 3 4 5
accurate
x 6
add to favorites
launch autoscroll
font size
0
reset
how to read this tab
guitar tuner
Autoscroll
slow
fast
+/-
esc
set tempo
stop
Help us to improve Ultimate-Guitar.com Take our survey!
×
Author
Difficulty
novice
                                  Dr. Stephen                                   


                                                                   Stephen Lynch
Track 1



     Q    E  Q    E  Q       Q    E  Q    E  Q       Q    E  Q    E  Q     
E||-----------------------|-----------------------|-----------------------|
B||--2-------2----2--3----|--2-------2----2--3----|--2-------2----2--3----|
G||--2-------2----2--3----|--2-------2----2--3----|--2-------2----2--3----|
D||--2-------2----2--3----|--2-------2----2--3----|--2-------2----2--3----|
A||--0-------0----0--0----|--0-------0----0--0----|--0-------0----0--0----|
E||-----------------------|-----------------------|-----------------------|


  Q    E  E  E  E  E  E     Q    E  Q    E  Q       Q    E  Q    E  Q     
-------------------------|-----------------------|-----------------------|
--2-------3--2-----------|--2-------2----2--3----|--2-------2----2--3----|
--2-------------3--2-----|--2-------2----2--3----|--2-------2----2--3----|
--2-------------------3--|--2-------2----2--3----|--2-------2----2--3----|
--0----------------------|--0-------0----0--0----|--0-------0----0--0----|
-------------------------|-----------------------|-----------------------|


  Q    E  Q    E  Q       Q    E  E  E  E  E  E     Q    E  Q    E  Q     
-----------------------|-------------------------|-----------------------|
--2-------2----2--3----|--2----------------2--3--|--2-------2----2--3----|
--2-------2----2--3----|--2----------2--3--------|--2-------2----2--3----|
--2-------2----2--3----|--2----2--3--------------|--2-------2----2--3----|
--0-------0----0--0----|--0----------------------|--0-------0----0--0----|
-----------------------|-------------------------|-----------------------|


                                                            W         
  Q    E  Q    E  Q       Q    E  Q    E  Q       Q    Q    H         
-----------------------|-----------------------|---------------------|
--2-------2----2--3----|--2-------2----2--3----|--2------------------|
--2-------2----2--3----|--2-------2----2--3----|--2------------------|
--2-------2----2--3----|--2-------2----2--3----|--2------------------|
--0-------0----0--0----|--0-------0----0--0----|--0------------------|
-----------------------|-----------------------|------------3--------|


  Q    E  Q    E  Q       Q    E  Q    E  Q       Q    E  Q    E  Q     
-----------------------|-----------------------|-----------------------|
--2-------2----2--3----|--2-------2----2--3----|--2-------2----2--3----|
--2-------2----2--3----|--2-------2----2--3----|--2-------2----2--3----|
--2-------2----2--3----|--2-------2----2--3----|--2-------2----2--3----|
--0-------0----0--0----|--0-------0----0--0----|--0-------0----0--0----|
-----------------------|-----------------------|-----------------------|


  Q    Q    Q    Q       Q    E  Q    E  Q       Q    E  Q    E  Q     
----------------------|-----------------------|-----------------------|
--2-------------------|--2-------2----2--3----|--2-------2----2--3----|
--2-------------------|--2-------2----2--3----|--2-------2----2--3----|
--2-------------------|--2-------2----2--3----|--2-------2----2--3----|
--0-------------------|--0-------0----0--0----|--0-------0----0--0----|
----------------------|-----------------------|-----------------------|


  Q    E  Q    E  Q       Q    E  Q    E  Q       Q    E  Q    E  Q     
-----------------------|-----------------------|-----------------------|
--2-------2----2--3----|--2-------2----2--3----|--2-------2----2--3----|
--2-------2----2--3----|--2-------2----2--3----|--2-------2----2--3----|
--2-------2----2--3----|--2-------2----2--3----|--2-------2----2--3----|
--0-------0----0--0----|--0-------0----0--0----|--0-------0----0--0----|
-----------------------|-----------------------|-----------------------|


                                                               Body Hit       
  Q    E  Q    E  Q       Q    E  Q    E  Q       Q    Q    E  E        Q     
-----------------------|-----------------------|-----------------------------|
--2-------2----2--3----|--2-------2----2--3----|--2--------------------------|
--2-------2----2--3----|--2-------2----2--3----|--2--------------------------|
--2-------2----2--3----|--2-------2----2--3----|--2--------------------------|
--0-------0----0--0----|--0-------0----0--0----|--0------------0--------0----|
-----------------------|-----------------------|---------------0--------0----|


  ^      ^    ^  ^       ^      ^    ^  ^       ^      ^    ^  ^     
  Q.     Q    E  Q       Q.     Q    E  Q       Q.     Q    E  Q     
----------------------|----------------------|----------------------|
--2------2----2--3----|--2------2----2--3----|--2------2----2--3----|
--2------2----2--3----|--2------2----2--3----|--2------2----2--3----|
--2------2----2--3----|--2------2----2--3----|--2------2----2--3----|
--0------0----0--0----|--0------0----0--0----|--0------0----0--0----|
----------------------|----------------------|----------------------|


  ^      ^    ^  ^       ^      ^    ^  ^       ^      ^    ^  ^     
  Q.     Q    E  Q       Q.     Q    E  Q       Q.     Q    E  Q     
----------------------|----------------------|----------------------|
--2------2----2--3----|--2------2----2--3----|--2------2----2--3----|
--2------2----2--3----|--2------2----2--3----|--2------2----2--3----|
--2------2----2--3----|--2------2----2--3----|--2------2----2--3----|
--0------0----0--0----|--0------0----0--0----|--0------0----0--0----|
----------------------|----------------------|----------------------|


  ^      ^    ^  ^       ^      ^    ^  ^       ^      ^    ^  ^     
  Q.     Q    E  Q       Q.     Q    E  Q       Q.     Q    E  Q     
----------------------|----------------------|----------------------|
--2------2----2--3----|--2------2----2--3----|--2------2----2--3----|
--2------2----2--3----|--2------2----2--3----|--2------2----2--3----|
--2------2----2--3----|--2------2----2--3----|--2------2----2--3----|
--0------0----0--0----|--0------0----0--0----|--0------0----0--0----|
----------------------|----------------------|----------------------|


  ^      ^    ^  ^       ^      ^    ^  ^       ^      ^    ^  ^     
  Q.     Q    E  Q       Q.     Q    E  Q       Q.     Q    E  Q     
----------------------|----------------------|----------------------|
--2------2----2--3----|--2------2----2--3----|--2------2----2--3----|
--2------2----2--3----|--2------2----2--3----|--2------2----2--3----|
--2------2----2--3----|--2------2----2--3----|--2------2----2--3----|
--0------0----0--0----|--0------0----0--0----|--0------0----0--0----|
----------------------|----------------------|----------------------|


  ^      ^    ^  ^       ^      ^    ^  ^       ^      ^    ^  ^     
  Q.     Q    E  Q       Q.     Q    E  Q       Q.     Q    E  Q     
----------------------|----------------------|----------------------|
--2------2----2--3----|--2------2----2--3----|--2------2----2--3----|
--2------2----2--3----|--2------2----2--3----|--2------2----2--3----|
--2------2----2--3----|--2------2----2--3----|--2------2----2--3----|
--0------0----0--0----|--0------0----0--0----|--0------0----0--0----|
----------------------|----------------------|----------------------|


  ^                                                                    
  Q    Q    Q    Q       Q    E  Q    E  Q       Q    E  Q    E  Q     
----------------------|-----------------------|-----------------------|
--2-------------------|--2-------2----2--3----|--2-------2----2--3----|
--2-------------------|--2-------2----2--3----|--2-------2----2--3----|
--2-------------------|--2-------2----2--3----|--2-------2----2--3----|
--0-------------------|--0-------0----0--0----|--0-------0----0--0----|
----------------------|-----------------------|-----------------------|


                                          ^                             
  Q    E  Q    E  Q       Q    Q    Q     Q       Q    E  Q    E  Q     
-----------------------|-----------------12----|-----------------------|
--2-------2----2--3----|--2--------------------|--2-------2----2--3----|
--2-------2----2--3----|--2--------------------|--2-------2----2--3----|
--2-------2----2--3----|--2--------------------|--2-------2----2--3----|
--0-------0----0--0----|--0--------------------|--0-------0----0--0----|
-----------------------|-----------------------|-----------------------|


  Q    E  Q    E  Q       Q    E  Q    E  Q       Q    Q    Q    Q     
-----------------------|-----------------------|----------------------|
--2-------2----2--3----|--2-------2----2--3----|--2-------------------|
--2-------2----2--3----|--2-------2----2--3----|--2-------------------|
--2-------2----2--3----|--2-------2----2--3----|--2-------------------|
--0-------0----0--0----|--0-------0----0--0----|--0-------------------|
-----------------------|-----------------------|----------------------|


  Q    E  Q    E  Q       Q    E  Q    E  Q       Q    E  Q    E  Q     
-----------------------|-----------------------|-----------------------|
--2-------2----2--3----|--2-------2----2--3----|--2-------2----2--3----|
--2-------2----2--3----|--2-------2----2--3----|--2-------2----2--3----|
--2-------2----2--3----|--2-------2----2--3----|--2-------2----2--3----|
--0-------0----0--0----|--0-------0----0--0----|--0-------0----0--0----|
-----------------------|-----------------------|-----------------------|


  Q    E  Q    E  Q       Q    E  Q    E  Q       Q    E  Q    E  Q     
-----------------------|-----------------------|-----------------------|
--2-------2----2--3----|--2-------2----2--3----|--2-------2----2--3----|
--2-------2----2--3----|--2-------2----2--3----|--2-------2----2--3----|
--2-------2----2--3----|--2-------2----2--3----|--2-------2----2--3----|
--0-------0----0--0----|--0-------0----0--0----|--0-------0----0--0----|
-----------------------|-----------------------|-----------------------|


                                       Body Hit                              
                                                        ^      ^    ^  ^     
  Q    E  Q    E  Q       Q    Q    E  E        Q       Q.     Q    E  Q     
-----------------------|-----------------------------|----------------------|
--2-------2----2--3----|--2--------------------------|--2------2----2--3----|
--2-------2----2--3----|--2--------------------------|--2------2----2--3----|
--2-------2----2--3----|--2--------------------------|--2------2----2--3----|
--0-------0----0--0----|--0------------0--------0----|--0------0----0--0----|
-----------------------|---------------0--------0----|----------------------|


  ^      ^    ^  ^       ^      ^    ^  ^       ^      ^    ^  ^     
  Q.     Q    E  Q       Q.     Q    E  Q       Q.     Q    E  Q     
----------------------|----------------------|----------------------|
--2------2----2--3----|--2------2----2--3----|--2------2----2--3----|
--2------2----2--3----|--2------2----2--3----|--2------2----2--3----|
--2------2----2--3----|--2------2----2--3----|--2------2----2--3----|
--0------0----0--0----|--0------0----0--0----|--0------0----0--0----|
----------------------|----------------------|----------------------|


  ^      ^    ^  ^       ^      ^    ^  ^       ^      ^    ^  ^     
  Q.     Q    E  Q       Q.     Q    E  Q       Q.     Q    E  Q     
----------------------|----------------------|----------------------|
--2------2----2--3----|--2------2----2--3----|--2------2----2--3----|
--2------2----2--3----|--2------2----2--3----|--2------2----2--3----|
--2------2----2--3----|--2------2----2--3----|--2------2----2--3----|
--0------0----0--0----|--0------0----0--0----|--0------0----0--0----|
----------------------|----------------------|----------------------|


  ^                     
  Q    Q    Q    Q      
----------------------||
--2-------------------||
--2-------------------||
--2-------------------||
--0-------------------||
----------------------||




Duration Legend
---------------
W - whole
H - half
Q - quarter
E - 8th
S - 16th
T - 32nd
X - 64th
. - note dotted
|-n-|  - n-tuplets


Tablature Legend
----------------
L - tied note
x - dead note
g - grace note
(n) - ghost note
> - accentuded note
NH - natural harmonic
AH - artificial harmonic
TH - tapped harmonic
SH - semi harmonic
PH - pitch harmonic
h - hammer on
p - pull off
b - bend
br - bendRelease
pb - preBend
pbr - preBendRelease
brb - bendReleaseBend
\n/ - tremolo bar dip
\n - tremolo bar dive
-/n - tremolo bar Release up
/n\ - tremolo bar inverted dip
/n - tremolo bar return
-\n - tremolo bar Release down
S - shift slide
s - legato slide
/ -  slide into from below or out of upwards
\ -  slide into from above or out of downwards
~ - vibrato
W - wide vibrato
tr - trill
TP - tremolo picking
T - tapping
S - slap
P - pop
< - fade in
^ - brush up
v - brush down
Suggest correction
What's this?
You can suggest a correction to this tab. Community and Mods will review your correction and vote to approve or reject it.
comments
print report bad tab
guest
You may want to rate the tab now too:
select rating
Please do not post tabs as comments. Select "correction" instead!