Oops, an error
Loading. Please wait.

For Me Ukulele Chords

66 views 3 this week
no commentswrite comment
1 2 3 4 5
please rate
add to favorites
launch autoscroll
font size
0
reset
transpose
0
reset
display chords
guitar tuner
Autoscroll
slow
fast
+/-
esc
set tempo
stop
Help us to improve Ultimate-Guitar.com Take our survey!
×
-------------------------------------------------------------------------------
                             For Me - Stephen Lynch
-------------------------------------------------------------------------------
Tabbed by:  Apostolas
Email:  apostolas.hale@gmail.com

Tuning:  Standard

I haven't seen a tab for this song, so I thought I'd try to make one.  I'm pretty sure 
is how it goes.  Any comments or questions just e-mail me.  Thanks.

Intro/Verse:  When you see the x's, slap the strings.  Play 3x during the verse's, and 
intro is included in the first verse.

e|---------3------x------3------3------0------0------------------------------|
B|---------3------x------3------3------0----------0--------------------------|
G|----------------x------4------4------0--------------0----------------------|
D|----------------x------5------5------2------------------2------------------|
A|--2-------------x------5------5------2----------------------2--------------|
E|--3-------------x------3------3------0--------------------------0----------|

e|--------------0---------------3p0------------------------------------------|
B|------1---------------1-------------1--------------------------------------|
G|----------------------------------------2----------------------------------|
D|------2-------2-------2---2-----------------2------------------------------|
A|--0-------0-------0--------------------------------------------------------|
E|---------------------------------------------------------------------------|

Verse 1 Lyrics:

The union of a woman and a man, touchin' for the very first time.

The gentle texture of a hand, true love is always hard to find.

Chorus 1:

Am                                       F    C
And sometimes, my penis ain't as hard as wood.

Am                                     F      C
And sometimes, your disappointed in my manly hood.

F                       C
I can't take it please, fake it for me.

Verse 2 Lyrics:

Take the nature of love, can only make this relationship grow.

And don't send from heaven above, cause things don't always work down below.

Chorus 2:

Am                                    F    C
And I know, that the porno movies make ya feel cheap

Am                                       F      C
And sometimes, you finish while I'm fast asleep, baby.

F                       C
I can't take it please, fake it for me.


Play intro 1x here.


Bridge:

F               C           C        C
Try so hard to be a man but, so damn hard to please.

F                    C                   C          C
Doesn't help to know that your best friend, runs on batteries.

F                       C
I can't take it please, fake it for me.

Chorus 3:

Am                              F          C
Even though, my love's a little premature, yeah.

Am                                F      C
When you call me, Mr. Softy I get insecure.

F                       C
I can't take it please, fake it for me.


Play the intro once more at the end and strum G once to finish it off.

This is a pretty funny song and it can be found on you tube to get the strumming pattern.

| /  slide up
| \  slide down
| h  hammer-on
| p  pull-off
| ~  vibrato
| +  harmonic
| x  Mute note
===============================================================================
Suggest correction
Give kudos to tab author, rate the tab!
1 2 3 4 5
comments
print report bad tab
guest
You may want to rate the tab now too:
select rating
Please do not post tabs as comments. Select "correction" instead!