Oops, an error
Loading. Please wait.

Little Tiny Moustache Tab

version 3
version 3

Whole song

2,937 views 3 this week
no commentswrite comment
1 2 3 4 5
please rate
add to favorites
launch autoscroll
font size
0
reset
how to read this tab
guitar tuner
Autoscroll
slow
fast
+/-
esc
set tempo
stop
Help us to improve Ultimate-Guitar.com Take our survey!
×
Author
This contains the tab and the lyrics, Enjoy!!!

This tab is tuned from low-high: F,A,d,G,b,E
Song is played in 4/4 time

x= mute string
*= don't play string

Verse 1 (finger picking): Repeat this verse 6x (2x intro, 4x verse 1)

----------------------------------|
----------------------------------|
---3---3---3---3---3---3---3---3--|
--3-3-3-3-3-3-3-3-3-3-3-3-3-3-3-3-|
-1---1---0---0-----------0---0----|
-----------------2---2------------|


Chorus: repeat 2x

----------------------------------|
---3---3---3---3---3---3---3---3--|
--3-3-3-3-3-3-3-3-3-3-3-3-3-3-3-3-|
----------------------------------|
-1---1----------------------------|
---------3---3---2---2---3---3----|


Verse 1 chords: Repeat 4x

-*-**-***-*-**-***-*-**-***-*-**-*--**-|
-*-**-***-*-**-***-*-**-***-*-**-*--**-|
-3-33-333-3-33-333-3-33-333-3-33-333**-|
-3-33-333-3-33-333-3-33-333-3-33-333**-|
-1-11-111-0-00-000----------0-00-000**-|
-x-xx-xxx-x-xx-xxx-2-22-222-x-xx-xxx**-|


Chorus: repeat 2x

----------------------------------|
---3---3---3---3---3---3---3---3--|
--3-3-3-3-3-3-3-3-3-3-3-3-3-3-3-3-|
----------------------------------|
-1---1----------------------------|
---------3---3---2---2---3---3----|


Verse 1 chords: Repeat 4x

-*-**-***-*-**-***-*-**-***-*-**-*--**-|
-*-**-***-*-**-***-*-**-***-*-**-*--**-|
-3-33-333-3-33-333-3-33-333-3-33-333**-|
-3-33-333-3-33-333-3-33-333-3-33-333**-|
-1-11-111-0-00-000----------0-00-000**-|
-x-xx-xxx-x-xx-xxx-2-22-222-x-xx-xxx**-|


Chorus: repeat 2x

----------------------------------|
---3---3---3---3---3---3---3---3--|
--3-3-3-3-3-3-3-3-3-3-3-3-3-3-3-3-|
----------------------------------|
-1---1----------------------------|
---------3---3---2---2---3---3----|

Verse 2 (chords): repeat 2x

-*-**-***-*-**-***-*-**-***-*-**-*--**-|
-*-**-***-*-**-***-*-**-***-*-**-*--**-|
-3-33-333-3-33-333-3-33-333-3-33-333**-|
-3-33-333-3-33-333-3-33-333-3-33-333**-|
-0-00-000-1-11-111-0-00-000-1-11-111**-|
-x-xx-xxx-x-xx-xxx-x-xx-xxx-x-xx-xxx**-|


Outro chorus: repeat 2x

----------------------------------|
---3---3---3---3---3---3---3---3--|
--3-3-3-3-3-3-3-3-3-3-3-3-3-3-3-3-|
----------------------------------|
-1---1----------------------------|
---------3---3---2---2---3---3----|


Make sure to slow down in tempo towards the end of the song.


This is the end of the song. If you want to master this song, listen to this song on
recording to match the lyrics below with the song above.

Hope you enjoyed this Tab!!!


These are the Lyrics for Little Tiny Mustache:

You're the love of my life but it cuts like a knife
and I feel that I'm being misled
See I'm a little concerned for I've recently learned
of the swastika tattoo on your head

And it makes you smile when you hear "Sieg Heil"
You love the smell of a burning cross in the yard
You do goose step salutes in your Doc Martin boots,
and you quoted "Mein Kampf" in our 5th anniversary card.

I think you're a nazi baby,
Are you a nazi?
You might be a nazi baby...

You keep extensive files on the Nuremberg trials,
and you watch them whenever they're airing
I guess I should've known when you bought a new bone
for your puppies named Goebbels and Goering

You showed up late to our very first date,
I said "how are you" you said "white power"
Call me paranoid but I'm not overjoyed
when you ask me if I want to shower...

I think you're a nazi
Don't be lying baby,
Are you a nazi?
Are you anti-Zion maybe?

Your every dress is monogrammed SS,
you hold an Aryan picnic and bash
And it makes me irate when you say I look great
when I wear a little tiny moustache,

Your social politics say that races don't mix,
and you call it pure blood pollution
And whenever I'm sad, you say it's not so bad,
for every problem there's a "Final Solution"...

I think you're a nazi,
Give me an answer baby
Are you a nazi?
You drive a f***ing panzer baby.

You say that love is blind so how could I have guessed
But then again I met you at The Wagner Fest.

I know you're a nazi
And that's why I'm leavin'
I know you're a nazi
Sure as my name is Stephen, Lynch-Berg-stein.
Suggest correction
Give kudos to tab author, rate the tab!
1 2 3 4 5
comments
print report bad tab
guest
You may want to rate the tab now too:
select rating
Wanna post a correction for this tab? Suggest correction