Oops, an error
Loading. Please wait.

Little Tiny Mustache Tab

version 1
version 1

Whole song

12,244 views 12 this week
no commentswrite comment
1 2 3 4 5
excellent!
x 3
add to favorites
launch autoscroll
font size
0
reset
how to read this tab
guitar tuner
Autoscroll
slow
fast
+/-
esc
set tempo
stop
Help us to improve Ultimate-Guitar.com Take our survey!
×
Author
Difficulty
intermediate
Little Tiny Mustache
~~~~~~~~~~~~~~~~~~
by Stephen Lynch
from "The Craig Machine" (2006)


   +--------------------------PLEASE NOTE--------------------------+
   + This file is Jordan Lapping’s own work and represents his     +
   + interpretation of the song. You may only use this file for    +
   + private study, scholarship, or research. The contents may not +
   + be duplicated for use with other websites without written     +
   + permission. Thank you for understanding. Enjoy.               +
   +---------------------------------------------------------------+


I have written this out so that the fingerpick/strumming patterns are shown separately 
Figure") at the beginning, and below them are the lyrics combined with the necessary 
Figures.


   |================================|
   |      *Capo on 3rd Fret*        |
   | All tabs are relative to Capo. |
   |================================|

[Rythm Figure 1]
  e|-------------------------------------------------------------------|
  B|-------------------------------------------------------------------|
  G|-----0-------0--------0-------0-------0-------0-------0-------0----|
  D|---0---0---0---0----0---0---0---0---0---0---0---0---0---0---0---0--|
  A|-------------------------------------------------------------------|
  E|-3-------3-------2--------2-------0-------0-------2-------2--------|

[Rythm Figure 2]
  e|-------------------------------------------------------------------|
  B|-----0-------0--------0-------0-------0-------0-------0-------0----|
  G|---0---0---0---0----0---0---0---0---0---0---0---0---0---0---0---0--|
  D|-------------------------------------------------------------------|
  A|-------------------------------------------------------------------|
  E|-3-------3-------1--------1-------0-------0-------1-------1--------|

[Rhythm Figure 3]
      G          G6add9     G6         D
  e|--3-3-3-3-3--3-3-3-3-3--3-3-3-3-3--2-2-2-2-2-2---|
  B|--3-3-3-3-3--3-3-3-3-3--3-3-3-3-3--3-3-3-3-3-3---|
  G|--0-0-0-0-0--0-0-0-0-0--0-0-0-0-0--2-2-2-2-2-2---|
  D|--0-0-0-0-0--0-0-0-0-0--2-2-2-2-2--0-0-0-0-0-0---|
  A|--2-2-2-2-2--0-0-0-0-0--2-2-2-2-2----------------|
  E|--3-3-3-3-3--0-0-0-0-0--0-0-0-0-0----------------|

[Rhythm Figure 4]
     Bm          C         Bm            C Cadd9 C
  e|--2-2-2-2-2--0-0-0-0-0--2-2-2-2-2-2--0-0-0-0-0---|
  B|--3-3-3-3-3--1-1-1-1-1--3-3-3-3-3-3--1-1-1-1-1---|
  G|--4-4-4-4-4--0-0-0-0-0--4-4-4-4-4-4--0-0-0-0-0---|
  D|--4-4-4-4-4--2-2-2-2-2--4-4-4-4-4-4--2-2p0h2-2---|
  A|--2-2-2-2-2--3-3-3-3-3--2-2-2-2-2-2--3-3-3-3-3---|
  E|--2-2-2-2-2--0-0-0-0-0--2-2-2-2-2-2--0-0-0-0-0---|

[Rhythm Figure 5]
     Bm          C            C6       D
  e|--2-2-2-2-2--0-0-0-0-0-0-------0~~~----2~~~---|
  B|--3-3-3-3-3--1-1-1-1-1-1------1~~~----3~~~----|
  G|--4-4-4-4-4--0-0-0-0-0-0-----0~~~----2~~~-----|
  D|--4-4-4-4-4--2-2-2-2-2-2----2~~~----0~~~------|
  A|--2-2-2-2-2--3-3-3-3-3-3---0~~~---------------|
  E|--2-2-2-2-2--0-0-0-0-0-0--0~~~----------------|

[Rhythm Figure 6]

  e|-------------------------------------------------------------------|
  B|-----0-------0--------0-------0-------0-------0-------0-------0----|
  G|---0---0---0---0----0---0---0---0---0---0---0---0---0---0---0---0--|
  D|--------------------------------------------------1-------1--------|
  A|-------------------------------------------------------------------|
  E|-3-------3-------1--------1-------0-------0------------------------|

[Rhythm Figure 7]
     G
  e|------3~~~~----3--|
  B|-----3~~~~-----3--|
  G|----0~~~~------0--|
  D|---0~~~~-------0--|
  A|--2~~~~--------2--|
  E|-3~~~~---------3--|

INTRO:
   [Rythm Figure 1] (x2)


VERSE 1:
   [Rhythm Figure 1]
 You're the love of my life...
   [Rhythm Figure 1]
 See I'm a little concerned...
   [Rhythm Figure 1]
 And it makes you smile...
   [Rhythm Figure 1]
 You do goose step salutes...


CHORUS:
   [Rhythm Figure 2]
 I think you're a Nazi baby...
   [Rhythm Figure 2]
 You might be a Nazi baby...


VERSE 2:
   [Rhythm Figure 3]
 You keep extensive files...
   [Rhythm Figure 3]
 I guess I should have known...
   [Rhythm Figure 3]
 You showed up late...
   [Rhythm Figure 3]
 Call me paranoid...


CHORUS:
    [Rhythm Figure 2]
 Don't be lying baby...
    [Rhythm Figure 2]
 You might be Anti-Zion baby?


VERSE 3:
   [Rhythm Figure 3]
 Your every dress is monagram SS...
   [Rhythm Figure 3]
 And it makes me irate when you say I look great...
   [Rhythm Figure 3]
 Your social politics say that races don't mix...
   [Rhythm Figure 3]
 Call me paranoid but I'm not overjoyed...


CHORUS:
   [Rhythm Figure 2]
 Give me an answer baby...
   [Rhythm Figure 2]
 You drive a fucking panzer baby...


VERSE 4:
   [Rhythm Figure 4]
 You say that love is blind...
   [Rhythm Figure 5]
 Then again I met you at the Wagner Fest...


OUTRO:
  [Rhythm Figure 2]
 And that's why I'm leavin'...
  [Rhythm Figure 6]
 Sure as my name is Stephen Lynch- Berg-
  [Rhythm Figure 7]
 Stein.


Chords used:
          EADGBe
  G.......320033
  G6add9..000033
  G6......022033
  D.......2320xx
  Bm......224432
  C.......032010
  Cadd9...030010
  C6......002010
Suggest correction new What's this?
You can suggest a correction to this tab. Community and Mods will review your correction and vote to approve or reject it.
comments
We did not receive enough feedback on this tab! Please rate:
print report bad tab
1 2 3 4 5
guest
You may want to rate the tab now too:
select rating
Please do not post tabs as comments. Select "correction" instead!