Oops, an error
Loading. Please wait.

Little Tiny Mustache Tab

version 2
version 2

Whole song

2,009 views 6 this week
no commentswrite comment
1 2 3 4 5
2 more votes to show rating
add to favorites
launch autoscroll
font size
0
reset
how to read this tab
guitar tuner
Autoscroll
slow
fast
+/-
esc
set tempo
stop
Help us to improve Ultimate-Guitar.com Take our survey!
×
Capo
3rd fret
This is my first time submitting so let me know what you think. Listen to the song
to get the rhythm and timing down.
It's relatively easy. SO have fun.

Little Tiny Mustache
Capo 3rd fret

Chords used G F#/D Em Bm C Am D (relative to capo)


Riff 1
e|-------------------------------------------------------------------|
B|-------------------------------------------------------------------|
G|-----0-------0--------0-------0-------0-------0-------0-------0----|
D|---0---0---0---0----0---0---0---0---0---0---0---0---0---0---0---0--|
A|-------------------------------------------------------------------|
E|-3-------3-------2--------2-------0-------0-------2-------2--------|

Riff 2
e|-------------------------------------------------------------------|
B|-----0-------0--------0-------0-------0-------0-------0-------0----|
G|---0---0---0---0----0---0---0---0---0---0---0---0---0---0---0---0--|
A|-------------------------------------------------------------------|
D|-------------------------------------------------------------------|
E|-3-------3-------1--------1-------0-------0-------1-------1--------|

Riff 3

e------------------|
B-----0-------0----|
G---0---0---0---0--|
A-1-------1--------|
D------------------|
E------------------|


Intro/1st Verse: Riff 1

Riff 1
You're the love of my life, but it cuts like a knife,

And I feel that I'm being mislead.

See I'm a little concerned for I recently learned

of the swastika tattoo on you head.

And it makes smile when you hear zighield,

you love the smell of a burning cross in the yard,

And your goosestep salutes in your dock martin boots,

and you quoted monconff in our 5th anniversary card.     Riff 2


Riff 2
I think you're a Nazi baby, are you a Nazi,

You might be a Nazi baby,


          G                 F#/D
You keep extensive files on Nirenberg triles,

        Em                          F#/D
and you watch them whenever they're airing,


        G                            F#/D
I guess I should have known when you bought a new bone

         Em                        F#/D
for your puppies named gerbils and gary,


      G                   F#/D
You showed up late to our very first date,

          Em                       F#/D
I said how are you, you said white power,


        G                 F#/D
call me paranoid, but I'm not overjoyed

         Em                 F#/D
when you ask if I'd want to shower.


Riff 2
I think you're a Nazi, don't be lying baby,

are you a Nazi? are you anitzian baby?


           G            F#/D
Your every dress is monogrammed SS,

            Em                   F#/D
You hold an arisen pick-nick and bash,


       G                            F#/D
And it makes me irate when you say I'd look great

       Em                   F#/D
when I wear a little tiny mustache,


            G                   F#/D
Your social politics say that races don't mix,

        Em                   F#/D
and you call it pure blood pollution.


         G                        F#/D
And whenever I'm sad you say it's not so bad

          Em                          F#/D
for every problem there's a final solution.


Riff 2                                                                            Bm
I think you're a Nazi. Give me an answer baby..

Are you a Nazi. You drive a fuckin panzer baby.



Bm               C          Bm                   C
You say that love is blind, so how could I have guessed?


Bm          C            Am            D
But then again I met you at the vockerfest.



Riff 2
I know you're a Nazi, and that's why I'm leavin.
                                                     Riff 3        G
I know you're a Nazi, sure as my name is Stephen.... Lynch..Burg...Stein.


Well there you go. I hope you enjoy. It's a fun song to play and people really do
laugh at it. Thank you.
Suggest correction
Give kudos to tab author, rate the tab!
1 2 3 4 5
comments
print report bad tab
guest
You may want to rate the tab now too:
select rating
Wanna post a correction for this tab? Suggest correction