Oops, an error
Loading. Please wait.

Love Song Tab

version 2
version 2

Whole song

Interactive

18,224 views 18 this week
4 commentsread comments
1 2 3 4 5
excellent!
x 7
add to favorites
launch autoscroll
font size
0
reset
how to read this tab
guitar tuner
Tab Pro tools
  • play this tab
  • loop segment
  • change instrument
  • show fretboard
  • metronome
×
Best way to learn
"Love Song"
Autoscroll
slow
fast
+/-
esc
set tempo
stop
Contributor
Difficulty
novice
-------------------------------------------------------------------------------
                             Love Song - Stephen Lynch
-------------------------------------------------------------------------------
Tabbed by: Dave5023
Email:davidharris_36@hotmail.com

Tuning: Basic
In This song you'll need a coda on the 4th fret. In the intro its finger picking, but in 
main part you can use a pick. This Is my first tab so dont expect much.. ^_^
           C        D             C       D
e|---------0--------2-------------0-------2------------------------------------|
B|----1--0---1--------3-----1--0----1-----3------------------------------------|
G|----0--0-----0--------2---0--0------0---2------------------------------------|
D|---------------2--0-----0-------------2--------------------------------------|
A|--2------3----------------------3--------------------------------------------|
E|3----------------------------------------------------------------------------|
   If I had a hammer, I'd build a house for two
      C         G           C                G
e|--------------3----------------------------3-------------------------------|
B|----1---------0-----------1----------------0-------------------------------|
G|----0---------0-----------0----------------0-------------------------------|
D|----2---------0-----------2----------------0-------------------------------|
A|----3---------2-----------3----------------2-------------------------------|
E|----0---------3-----------0----------------3-------------------------------|
  And If I had a sailing ship, I'd take a trip with you
      C             G                Am              D
e|------------------3--------------------------------2-----------------------|
B|----1-------------0----------------1---------------3-----------------------|
G|----0-------------0----------------2---------------2-----------------------|
D|----2-------------0----------------2---------------0-----------------------|
A|----3-------------2----------------0---------------------------------------|
E|----0-------------3--------------------------------------------------------|
  And If I had a poets hand, I'd write a verse for thee
      C                  G         C                G
e|-----------------------3--------------------------3------------------------|
B|----1------------------0---------1----------------0------------------------|
G|----0------------------0---------0----------------0------------------------|
D|----2------------------0---------2----------------0------------------------|
A|----3------------------2---------3----------------2------------------------|
E|----0------------------3---------0----------------3------------------------|
  And If I had the painters touch, on canvas you would be
       C                      G         Am              D
e|----------------------------3-------------------------2--------------------|
B|-----1----------------------0---------1---------------3--------------------|
G|-----0----------------------0---------2---------------2--------------------|
D|-----2----------------------0---------2---------------0--------------------|
A|-----3----------------------2---------0------------------------------------|
E|-----0----------------------3----------------------------------------------|
  But I dont have a hammer, and I don't have a ship
         C            G            C            G
e|--------------------3-------------------------3----------------------------|
B|-------1------------0------------1------------0----------------------------|
G|-------0------------0------------0------------0----------------------------|
D|-------2------------0------------2------------0----------------------------|
A|-------3------------2------------3------------2----------------------------|
E|-------0------------3------------0------------3----------------------------|
  So I can't build a house, and we can't take a trip
        C              G             Am          D
e|---------------------3-------------------------2---------------------------|
B|------1--------------0-------------1-----------3---------------------------|
G|------0--------------0-------------2-----------2---------------------------|
D|------2--------------0-------------2-----------0---------------------------|
A|------3--------------2-------------0---------------------------------------|
E|------0--------------3-----------------------------------------------------|
  And I'll never be a poet, Nor have the painter's grace
             C          G        C                   G
e|----------------------3----------------------------3-----------------------|
B|-----------1----------0--------1-------------------0-----------------------|
G|-----------0----------0--------0-------------------0-----------------------|
D|-----------2----------0--------2-------------------0-----------------------|
A|-----------3----------2--------3-------------------2-----------------------|
E|-----------0----------3--------0-------------------3-----------------------|
  So I'll never write you a verse, Nor immortalize your face
           C                  G            Am             D
e|----------------------------3---------------------------2------------------|
B|---------1------------------0------------1--------------3------------------|
G|---------0------------------0------------2--------------2------------------|
D|---------2------------------0------------2--------------0------------------|
A|---------3------------------2------------0---------------------------------|
E|---------0------------------3----------------------------------------------|

  And Also.. I have Herpes.. - Sing that then play this next bit.
               C         D         D
e|-------------0---------2---------2-----------------------------------------|
B|-------1--0-----1--------3-------3-----------------------------------------|
G|-------0--0-------0--------2-----2-----------------------------------------|
D|--------------------2--0-----0---0-----------------------------------------|
A|---2---------3-------------------------------------------------------------|
E|-3-------------------------------------------------------------------------|

Have Fun with that, It's a great song.. I'll be putting up more Stephen Lynch Songs soon!!
comments
print report bad tab
4 comments total. Showing first comments.
+2 reply
meffickz wrote on November 2 2008, 01:59 pm

Sorry for being picky, but it's a Capo, not a Coda ;P.

Also, in my version of the song, he ends with strumming a G, not a D. Otherwise, really great tab, thanks a lot! 4/5

0 reply
Dave5023 wrote on April 26 2009, 12:10 pm

Yeh I realised while reading it over myself the other day :S
Then I forgot my pass and couldn't be arsed to recover it :D

0 reply
Dave5023 wrote on April 26 2009, 12:11 pm

And Also.. I have Herpes.. - Sing that then play this next bit.
C D G
e|-------------0---------2---------3------------------------------------------|
B|-------1--0-----1--------3-------2------------------------------------------|
G|-------0--0-------0--------2-----0------------------------------------------|
D|--------------------2--0-----0---0------------------------------------------|
A|---2---------3-------------------2------------------------------------------|
E|-3-------------------------------3------------------------------------------|

I want to post or [tab]
guest
You may want to rate the tab now too:
select rating
Please do not post tabs as comments. Select "correction" instead!