Oops, an error
Loading. Please wait.

Lullaby Tab

version 5
version 5

Whole song

Interactive

11,917 views 9 this week
4 commentsread comments
1 2 3 4 5
excellent!
x 5
add to favorites
launch autoscroll
font size
0
reset
how to read this tab
guitar tuner
Autoscroll
slow
fast
+/-
esc
set tempo
stop
Help us to improve Ultimate-Guitar.com Take our survey!
×
Author
Difficulty
Capo
intermediate
3rd fret
Capo on 3rd fret, everything relative to capo.

Verse 1

E|-------0------------0-----------0----------0-----|
B|-----3---3--------3---3-------3---3------3---3---|
G|---0-------0----0-------0---0------0---0-------0-|
D|--------------------------0----------------------|  2x
A|-------------3-----------------------3-----------|
E|-0-----------------------------------------------|

(no words)

E|---------0-----------------0-----------------0-----------------0-------|
B|-------3----3-----------3-----3-----------3-----3-----------3-----3----|
G|----0----------0-----0-----------0-----0-----------0-----0-----------0-|
D|------------------------------------0----------------------------------|
A|------------------3-----------------------------------3----------------|
E|-0---------------------------------------------------------------------|
 X's 3

  Hush,     little girl.             sweet, sweet      baby,
   Don't cry...                       tonight.
   Daddy is         here and he'll    sing you a        soft

E|-------0-----------0-----------0-----------0-----|
B|-----3---3-------3---3-------3---3-------3-------|
G|---0-------0---0-------0---0-------0---0---------|
D|-------------------------0-----------------------|
A|-------------3-----------------------3------/2---|
E|-0-----------------------------------------------|
Lullaby...                 tonight.

Pre-Chorus 1

E|-------0-----------0-----------0-----------0-----|
B|-----3---3-------3---3-------3---3-------3---3---|
G|---0-------0---0-------0---0-------0---0-------0-|
D|-------------2-----------------------2-----------|
A|-0-----------------------3-----------------------|
E|-------------------------------------------------|
   Why            can't it all         be like it

E|-------3-----------3-----------0-----------0-----|
B|-----3---3-------3---3-------3---3-------3---3---|
G|---0-------0---0-------0---0-------0---0-------0-|
D|-------------------------0-----------------------|
A|-------------2-----------------------0-----------|
E|-3-----------------------------------------------|
   was                     before?

E|-------0-----------0-----------0-----------0-----|
B|-----3---3-------3---3-------3---3-------3---3---|
G|---0-------0---0-------0---0-------0---0-------0-|
D|-------------2-----------------------2-----------|
A|-0-----------------------3-----------------------|
E|-------------------------------------------------|
   How         can    I    explain why Mommy's not

E|-------3-----------3-----------0-----------0-----|
B|-----3---3-------3---3-------3---3-------3---3---|
G|---0-------0---0-------0---0-------0---0-------0-|
D|-------------0-----------0-----------------------|
A|-------------------------------------0-----------|
E|-3-----------------------------------------------|
   here                any more...?

E|-------0-----------------------------------------|
B|-----3---3---------------------------------------|
G|---0-------0-------------------------------------|
D|-0-----------------------------------------------|
A|-------------0-----------------------------------|
E|-------------------------------------------------|

Chorus 1

 E|----------3-----------------0-----------------0-----------------0-----|
 B|-------3-----3-----------3-----3-----------3-----3-----------3----3---|
 G|----0-----------0-----0-----------0-----0-------------0---0---------0-|
 D|-------------------0--------------------------------------------------|
 A|-------------------------------------------------------3--------------|
 E|-3-----------------------------------0--------------------------------|
    X's 4
'Cause Daddy likes       porno and         ten-dollar        whores.
       Daddy gets        wasted and        robs liquor       stores.
       Daddy likes       rubbing           against           little boys on the.. bus.
I think that's why your   Mommy left us.

Verse 2

E|-------0------------0-----------0-----------0-----|
B|-----3---3--------3---3-------3---3-------3---3---|
G|---0-------0----0-------0---0-------0---0-------0-|
D|--------------------------0-----------------------|  2x
A|-------------3------------------------3-----------|
E|-0------------------------------------------------|


E|-------0------------0-----------0-----------0-----|
B|-----3---3--------3---3-------3---3-------3---3---|
G|---0-------0----0-------0---0-------0---0-------0-|
D|--------------------------0-----------------------|  3x
A|-------------3------------------------3-----------|
E|-0------------------------------------------------|
   Hush little girl.        There is no reason to
   fret                     tonight.
   Don't mind the smoke.    Daddy just wants to

E|-------0-----------0-----------0-----------0-----|
B|-----3---3-------3---3-------3---3-------3-------|
G|---0-------0---0-------0---0-------0---0---------|
D|-------------------------0-----------------------|
A|-------------3-----------------------3------/2---|
E|-0-----------------------------------------------|
   Forget                  tonight.

Pre-Chorus 2

E|-------0-----------0-----------0-----------0-----|
B|-----3---3-------3---3-------3---3-------3---3---|
G|---0-------0---0-------0---0-------0---0-------0-|
D|-------------2-----------------------2-----------|
A|-0-----------------------3-----------------------|
E|-------------------------------------------------|
   Soon            it will all         be like it

E|-------3-----------3-----------0-----------0-----|
B|-----3---3-------3---3-------3---3-------3---3---|
G|---0-------0---0-------0---0-------0---0-------0-|
D|-------------0-----------0-----------------------|
A|-------------------------------------0-----------|
E|-3-----------------------------------------------|
 was                     before.......

E|-------0-----------0-----------0-----------0-----|
B|-----3---3-------3---3-------3---3-------3---3---|
G|---0-------0---0-------0---0-------0---0-------0-|
D|-------------2-----------------------2-----------|
A|-0-----------------------3-----------------------|
E|-------------------------------------------------|
   Any                     minute      she will walk

E|-------3-----------3-----------0-----------0-----|
B|-----3---3-------3---3-------3---3-------3---3---|
G|---0-------0---0-------0---0-------0---0-------0-|
D|-------------0-----------0-----------------------|
A|-------------------------------------0-----------|
E|-3-----------------------------------------------|
   through      that front door.........

E|-------0-----------------------------------------|
B|-----3---3---------------------------------------|
G|---0-------0-------------------------------------|
D|-0-----------------------------------------------|
A|-------------0-----------------------------------|
E|-------------------------------------------------|

Chorus 2

E|-----------3-----------------0-----------------0-----------------0-----|
B|--------3-----3-----------3-----3-----------3-----3-----------3----3---|
G|-----0-----------0-----0-----------0-----0-------------0---0---------0-|
D|--------------------0--------------------------------------------------|  4x
A|--------------------------------------------------------3--------------|
E|--3-----------------------------------0--------------------------------|
But Daddy plays       poker and         drinks lots of    beer.
    Then he wants     sex that          involves mommy's  rear.
    Daddy has         sores on his      naughty parts       oozing with
    pus.                        I think that's why your   Mommy left us.

E|-------0-----------0-----------0-----------0-----|
B|-----3---3-------3---3-------3---3-------3---3---|
G|---0-------0---0-------0---0-------0---0-------0-|
D|-0-----------------------0-----------------------|
A|-------------0-----------------------0-----------|
E|-------------------------------------------------|

Bridge

E|-------0-----------0-----------0-----------0-----|
B|-----3---3-------3---3-------3---3-------3---3---|
G|---0-------0---0-------0---0-------0---0-------0-|
D|-------------------------0-----------------------|   2x
A|-3-----------------------------------0-----------|
E|-------------3-----------------------------------|
   Please            don't cry.
 I swear             I'll  try

E|-------0-----------0-----------0-----------0-----|
B|-----3---3-------3---3-------3---3-------3---3---|
G|---0-------0---0-------0---0-------0---0-------0-|
D|-------------2-----------0-----------0-----------|
A|-3-----------------------------------------------|
E|-------------------------------------------------|
To be                 here by          your side.

E|-------0-----------------------------------------|
B|-----3---3-------3-------------------------------|
G|---0-------0---0---0---0-------------------------|
D|-0-----------0-------0---0-----------------------|
A|-------------------------------------------------|
E|-------------------------------------------------|

Chorus

  E|-----------3-----------------0-----------------0-----------------0-----|
  B|--------3-----3-----------3-----3-----------3-----3-----------3----3---|
  G|-----0-----------0-----0-----------0-----0-------------0---0---------0-|
  D|--------------------0--------------------------------------------------|  4x
  A|--------------------------------------------------------3--------------|
  E|--3-----------------------------------0--------------------------------|
      Right after       Daddy gets        home from the     bar.
      Visits his        bookie        and steals      a new car.
He'll drive to the      strip club    and if Daddy          plays his cards
      right...                he'll bring home your new     Mommy tonight.

Outro

E|-------3-----------0-----------0-----------0-----|
B|-----3---3-------3---3-------3---3-------3---3---|
G|---0-------0---0-------0---0-------0---0-------0-|
D|-------------0-----------------------------------|  3x
A|-------------------------------------3-----------|
E|-3-----------------------0-----------------------|


E|-------3-----------0-----------0-----------------|-------||
B|-----3---3-------3---3-------3---3-----------3---|-------||
G|---0-------0---0-------0---0-------0-----0-------|-------||
D|-------------0-----------------------------------|-------||
A|-------------------------------------3-----------|-------||
E|-3-----------------------0-----------------------|-3~~~--||
Suggest correction
comments
print report bad tab
4 comments total. Showing first comments.
0 reply
midnightblue_15 10 wrote on December 26 2005, 10:23 pm

someone finally got the tab right!! the capo on the 3rd not 2nd

0 reply
Heather D 40 wrote on September 2 2006, 11:37 am

brilliant tab. :D

0 reply
Linuus 10 wrote on September 27 2006, 03:53 pm

In the Comedy Central clip he plays with a capo on 2nd fret! He plays just like version number 4. So I like the fourth version best :-)

guest
You may want to rate the tab now too:
select rating
Please do not post tabs as comments. Select "correction" instead!