Oops, an error
Loading. Please wait.

Not Home Tab

1,477 views 1 this week
no commentswrite comment
1 2 3 4 5
please rate
add to favorites
launch autoscroll
font size
0
reset
how to read this tab
guitar tuner
Tab Pro tools
  • play this tab
  • loop segment
  • change instrument
  • show fretboard
  • metronome
×
Best way to learn
"Not Home"
Autoscroll
slow
fast
+/-
esc
set tempo
stop
Contributor
Not Home
~~~~~~~~~~~~~~~~~~
by Stephen Lynch

   +--------------------------PLEASE NOTE--------------------------+
   + This file is Jordan Lapping’s own work and represents his     +
   + interpretation of the song. You may only use this file for    +
   + private study, scholarship, or research. The contents may not +
   + be duplicated for use with other websites without written     +
   + permission. Thank you for understanding. Enjoy.               +
   +---------------------------------------------------------------+


Tabbed by Jordan Lapping

Standard E Tuning


 CHORDS USED:
     A   D   G
e]---0---2---3---|
B]---2---3---0---|
G]---2---2---0---|
D]---2---0---0---|
A]---0-------2---|
E]-----------3---|


Techniques:
(x) = muted strings
(h) = hammer-on
(p) = pull-off
(/) = slide
(~) = let it ring
N/C = No Chord


 VERSE 1:
    A         G      D
e]------0~~~------3-----2~~~--|
B]-----2~~~------0-----3~~~---|
G]----2~~~------0-----2~~~----|
D]---2~~~------0-----0~~~-----| (x3)
A]--0~~~------2---------------|
E]-----------3----------------|

    G        D      A
e]-------3~-----2~------0~~~--|
B]------3~-----3~------2~~~---|
G]-----0~-----2~------2~~~----|
D]----0~-----0~------2~~~-----|
A]---2~-------------0~~~------|
E]--3~------------------------|

    G        D      A
e]-------3~-----2~------0~~~--|
B]------0~-----3~------2~~~---|
G]-----0~-----2~------2~~~----|
D]----0~-----0~------2~~~-----|
A]---2~-------------0~~~------|
E]--3~------------------------|


     A                            G          D
You say that you're leaving, but just for a day
     A                    G      D
The company wants you to fly to LA
        A                    G         D
So you leave me alone and I sit and I say
  G          D    A        G     D            A
"What will I do today - Today, while you're away?..."


 CHORUS 1:
    A              G      D
e]--000000-000000--33333--22222--|
B]--222222-222222--00000--33333--|
G]--222222-222222--00000--22222--|
D]--222222-222222--00000--00000--| (x3)
A]--000000-000000--22222---------|
E]-----------------33333---------|

    G      D      A
e]--33333--22222--0~~------0~~--|
B]--33333--33333--2~~----2~~----|
G]--00000--22222--2~~--2~~------|
D]--00000--00000--2~~-----------|
A]--22222---------0~~-----------|
E]--33333-----------------------|

    G        D      A
e]-------3~-----2~------0~~~--|
B]------0~-----3~------2~~~---|
G]-----0~-----2~------2~~~----|
D]----0~-----0~------2~~~-----|
A]---2~-------------0~~~------|
E]--3~------------------------|

N/C         A                         G             D
I will... sniff all your underwear, dress in your clothes
  A                     G         D
Pleasure myself inside your pantyhose
    A                    G         D
I know it's not easy to leave me alone
          G         D              A
But it's more fun when you're not home
            G                    D   A
Yeah, it's more fun when you're not home...



 VERSE 2:
    A         G      D
e]------0~~~------3-----2~~~--|
B]-----2~~~------0-----3~~~---|
G]----2~~~------0-----2~~~----|
D]---2~~~------0-----0~~~-----| (x3)
A]--0~~~------2---------------|
E]-----------3----------------|

    G        D      A
e]-------3~-----2~------0~~~--|
B]------3~-----3~------2~~~---|
G]-----0~-----2~------2~~~----|
D]----0~-----0~------2~~~-----|
A]---2~-------------0~~~------|
E]--3~------------------------|

    G        D      A
e]-------3~-----2~------0~~~--|
B]------0~-----3~------2~~~---|
G]-----0~-----2~------2~~~----|
D]----0~-----0~------2~~~-----|
A]---2~-------------0~~~------|
E]--3~------------------------|

     A                           G         D
You say that you're leaving but just over night
     A                    G            D
The company booked you a last minute flight
        A                    G         D
So you leave me alone and I sit and I say
  G           D    A        G     D         A
"What will I do tonight? Tonight I'll be alright..."


 CHORUS 2:
    A              G      D
e]--000000-000000--33333--22222--|
B]--222222-222222--00000--33333--|
G]--222222-222222--00000--22222--|
D]--222222-222222--00000--00000--| (x3)
A]--000000-000000--22222---------|
E]-----------------33333---------|

    G      D      A
e]--33333--22222--0~~--|
B]--33333--33333--2~~--|
G]--00000--22222--2~~--|
D]--00000--00000--2~~--|
A]--22222---------0~~--|
E]--33333--------------|

    G        D      A
e]-------3~-----2~------0~~~--|
B]------0~-----3~------2~~~---|
G]-----0~-----2~------2~~~----|
D]----0~-----0~------2~~~-----|
A]---2~-------------0~~~------|
E]--3~------------------------|

N/C        A                        G           D
I will... eat all your tampons and soil your pyjamas
 A                          G             D
Make obscene phonecalls to both of your grandmas
    A                    G         D
I know it's not easy to leave me alone
          G         D              A
But it's more fun when you're not home
            G                    D   A
Yeah, it's more fun when you're not home...
comments
We did not receive enough feedback on this tab! Please rate:
print report bad tab
1 2 3 4 5
I want to post or [tab]
guest
You may want to rate the tab now too:
select rating
Please do not post tabs as comments. Select "correction" instead!