Oops, an error
Loading. Please wait.

Shes Gotta Smile Chords

version 2
version 2

Whole song

29,653 views 15 this week
1 commentread comment
1 2 3 4 5
excellent!
x 8
add to favorites
launch autoscroll
font size
0
reset
transpose
0
reset
simplify chords
display chords
guitar tuner
Autoscroll
slow
fast
+/-
esc
set tempo
stop
Help us to improve Ultimate-Guitar.com Take our survey!
×
Author
She Gotta Smile
~~~~~~~~~~~~~~~~~~
by Stephen Lynch
from "Superhero" (2002)


   +--------------------------PLEASE NOTE--------------------------+
   + This file is Jordan Lapping’s own work and represents his     +
   + interpretation of the song. You may only use this file for    +
   + private study, scholarship, or research. The contents may not +
   + be duplicated for use with other websites without written     +
   + permission. Thank you for understanding. Enjoy.               +
   +---------------------------------------------------------------+


All other tabs submitted on the web are incorrect for this song, so
I decided to tab it out myself the best way I felt I could. Here it is!


             CHORDS USED
   (in order of first appearance):
    E  Asus2 Dsus2 B7   A   C#m   B
e]--0----0----0----0----0----4----2--|
B]--0----0----3----0----2----5----4--|
G]--1----2----2----2----2----6----4--|
D]--2----2----0----1----2----6----4--|
A]--2----0---------2----0----4----2--|
E]--0----0---------0----0----4-------|


|--------------------------------------------------------------|

                     Additional Tabs:
        [Figure 1]
              E       Asus2   Dsus2   B7
          e]----0---|---0---|---0---|-----0----|
          B]----0---|---0---|---3---|-----0----|
          G]----1-1-|---2-2-|---2---|---2---2--|
          D]--------|-------|-0---0-|----------|
          A]--------|-0-----|-------|-2--------|
          E]--0-----|-------|-------|----------|

        [Figure 2]
              E         Asus2     Dsus2     B7
          e]------0---|-----0---|-----0---|-----0----|
          B]------0---|-----0---|-----3---|-----0----|
          G]----1---1-|---2---2-|---2---2-|---2---2--|
          D]----------|---------|-0-------|----------|
          A]----------|-0-------|---------|-2--------|
          E]--0-------|---------|---------|----------|

|--------------------------------------------------------------|


 INTRO:
    E         Asus2     Dsus2     B7
e]------0---|-----0---|-----0---|---0------|
B]------0---|-----0---|-----3---|---0------|
G]----1---1-|---2---2-|---2---2-|-----2----|
D]----------|---------|-0-------|-------1--| (x2)
A]----------|-0-------|---------|-2--------|
E]--0-------|---------|---------|----------|


 VERSE 1: PICKED [Figure 1]
 E        Asus2  Dsus2            B7
She gotta smile, yeah, She gotta smile
            E         Asus2  Dsus2      B7
And she's flashin' it right at me
 E        Asus2  Dsus2            B7
She gotta wink, a wink across the bar
        E            Asus2   Dsus2      B7
And I know that it's meant to be
 E       Asus2  Dsus2             B7
She gotta walk, ooh, she walkin' over
        E          Asus2  Dsus2         B7
And I think it could be my day
 E            Asus2   Dsus2                B7
She gotta ... friend. Eeeew, she's got a friend


 PRE-CHORUS 1: STRUMMED
             E     Asus2  Dsus2
Why's she standin' in her way?!?
             B7
It's her big fat friend!
E    A          C#m    B
Oh God there's always one!
              E
(Big fat friend!)
     A        C#m    B
To spoil my fucking fun!


 CHORUS 1: STRUMMED
      E           A             C#m              B
Well baby, baby, baby, if it's boots you wanna knock
              E               A                  C#m             B
Leave your chubbly friend at home because she's gonna block the cock...
     E            A            C#m       B
Now I'm afraid of no man, With any I'll contend
    A            B7
But I cannot compete... with your Big Fat Friend


 INTERLUDE:
    E         Asus2     Dsus2     B7
e]------0---|-----0---|-----0---|---0------|
B]------0---|-----0---|-----3---|---0------|
G]----1---1-|---2---2-|---2---2-|-----2----|
D]----------|---------|-0-------|-------1--| (x2)
A]----------|-0-------|---------|-2--------|
E]--0-------|---------|---------|----------|


 VERSE 2: PICKED [Figure 2]
E           Asus2  Dsus2          B7
So Big Fat Friend.. Ah, we meet again
E             Asus2 Dsus2  B7
You won't leave her alone, no
E             Asus2 Dsus2           B7
You roll your eyes; make sarcastic comments
             E             Asus2   Dsus2        B7
While your suckin' on that chicken bone, yeah!


 VERSE 2 (Continued): STRUMMED
 E               Asus2
But that's okay
    Dsus2                        B7
You think you've won the battle
       E      Asus2  Dsus2     B7
But I tend to dissagree
 E               Asus2
See, I know you
    Dsus2               B7
And your Achilles Heel
          E      Asus2   Dsus2
And he's standing next to me
        B7               E
My Non-Discriminating Friend


 PRE-CHORUS 2: STRUMMED
    A         C#m      B
So what that you're a cow?
                      E
(Non-Discriminating Friend!)
      A       C#m  B
I'll fuck you any how...


 CHORUS 2: STRUMMED
        E        A             C#m              B
I know he's no looker and he's had a couple o' rounds
           E             A              C#m               B
But with every shot of Jäger, hey, you loose a couple o' pounds...
     E           A              C#m          B
Now baby, baby, baby bring the evening to an end
      A                B7
Just you and me and my pal, and your Big Fat friend!


 OUTRO:
                            E
e]----4---|---3---|---2---|------0--|
B]--------|-------|-------|-----0---|
G]--4---4-|-3---3-|-2---2-|----1----|
D]--------|-------|-------|---2-----|
A]--------|-------|-------|--2------|
E]--------|-------|-------|-0-------|
Suggest correction
What's this?
You can suggest a correction to this tab. Community and Mods will review your correction and vote to approve or reject it.
comments
print report bad tab
1 comment total.
0 reply
spider-rahuel 175 wrote on July 31 2010, 06:24 am

Ah, thank you so much for this. I only really wanted to learn the outro of the song but this song is so funny! :)

guest
You may want to rate the tab now too:
select rating
Please do not post tabs as comments. Select "correction" instead!