Oops, an error
Loading. Please wait.

Superhero Tab

version 2
version 2

Whole song

Interactive

20,827 views 3 this week
3 commentsread comments
1 2 3 4 5
accurate
x 5
add to favorites
launch autoscroll
font size
0
reset
how to read this tab
guitar tuner
Autoscroll
slow
fast
+/-
esc
set tempo
stop
Help us to improve Ultimate-Guitar.com Take our survey!
×
Difficulty
Capo
intermediate
3rd fret
Superhero
By Stephen Lynch
Tabbed by Colt73

standard tuning
Capo: 3rd fret

Chords: (Pick strings 4,5,&6 with thumb and strings 2&3 with the forefinger) 
C:x32010
C/G:332010
G:320003
Am:x02210
Fmaj7:xx3210


Intro(and interlude*)     Verse(played throughout with same picking pattern)

C/G       C         C/G    C     G   Am         Fmaj7   G      C    C/G  

|-----------------|-----------------|-----------------|-------------------|
|o----1----1-----o|o---1-----1-----0|----1-----1-----1|---0-----1-----1--o|
|-------0----0----|------0-----0----|0-----2-----2----|2----0-----0-----0-|
|-----------------|-----------------|---------2----3--|-------------------|
|o--------3------o|o--------3-------|--0--------------|--------3---------o|
|---3-------------|---3----------3--|-----------------|--3----------3-----|
 repeat as needed^                                    play twice^            
*when he talks to crowd
   Fmaj7  G    C     C/G     Fmaj7  G      C      Am
|---------------------------|-----------------|---0---0----------|
|o---1-----0-----1-----1---o|---1-----0-----1-|---1----1---------|
|------2-----0-----0-----0--|-----2-----0-----|0--2-----2--------|
|--3------------------------|-3---------------|---2------2-------|
|o-------------3-----------o|-------------3---|---0-------0------|
|--------3-----------3------|-------3---------|------------------|
 Fmaj7  G    C      played twice ^
|-----------------|
|--1-----0-----1--|
|----2-----0-----0|   play intro/interlude as needed
|3----------------|
|------------3----|
|------3----------|

same for the whole song until the end:
  Fmaj7  G          Am     Fmaj7 G       C(/G)
|-----------------|-----------------|----0------------|-----------------|
|o----1------0---o|-----1-----1-----|0---1------------|-----------------|
|---2------0------|---2-----2-----0-|----0------------|-----------------|
|-3---------------|-------3---------|----2------------|-----------------|
|o---------------o|-0---------------|----3------------|-----------------|
|-------3---------|-------------3---|---(3)-----------|-----------------|
   played twice ^                        ^ This note is optional           

i havn't seen any correct tabs for this song so here it is
this is my first tab and i hope this tab helps
listen to song for timings and lyrics

 P.S. Stephen Lynch Rules
comments
print report bad tab
3 comments total.
0 reply
StephenLynch117 39 wrote on April 24 2006, 05:04 pm

It looks pretty good, it's about time someone tabbed this out properly.

0 reply
tman4000 345 wrote on September 24 2006, 01:06 pm

Lyrics would help though

0 reply
spiderbren 17 wrote on February 2 2015, 10:16 pm

Tab incomplete. Clearly wrong. This tab is incomplete I wish someone would create a complete tab for this song yes I do yes I do

I want to post or [tab]
guest
You may want to rate the tab now too:
select rating
Please do not post tabs as comments. Select "correction" instead!