Oops, an error
Loading. Please wait.

Superhero Tab

version 3
version 3

Whole song

Interactive

6,848 views 3 this week
no commentswrite comment
1 2 3 4 5
please rate
add to favorites
launch autoscroll
font size
0
reset
how to read this tab
guitar tuner
Autoscroll
slow
fast
+/-
esc
set tempo
stop
Help us to improve Ultimate-Guitar.com Take our survey!
×
Contributor
bJoelFan13 1,041
This is the version from Comedy Central Presents...NO CAPO

standard tuning

----------------------------------------------------------------------------
                            Superhero- Stephen Lynch
----------------------------------------------------------------------------
Verse: 2x
     C        G       Am    Am     Fmaj7   G     C       C
e|-------------------------------------------------------------------------|
B|-----1-1-----3-3-----1-1----1-1----1-1----3-3----1-1----1-1--------------|
G|-----0-0-----0-0-----2-2----2-2----2-2----0-0----0-0----0-0--------------|
D|---------------------------------3---------------------------------------|
A|---3---------------0------0--------------------3------3------------------|
E|-----------3----------------------------3--------------------------------|

Bridge:
     Fmaj7    G       C        C     Fmaj7    G       C       C
e|-------------------------------------------------------------------------|
B|-----1-1-----3-3-----1-1-----1-1-----1-1-----3-3-----1-1-----1-1---------|
G|-----2-2-----0-0-----0-0-----0-0-----2-2-----0-0-----0-0-----0-0---------|
D|---3-------------------------------3-------------------------------------|
A|-------------------3-------3-----------------------3-------3-------------|
E|-----------3-------------------------------3-----------------------------|

     Fmaj7     G     C G*Am        Fmaj7    G       C      C
e|-------------------0-0-0--0----------------------------------------------|
B|-----1-1-----3-3---1-1-1---1-------1-1-----3-3-----1-1-----1-1-----------|
G|-----2-2-----0-0---0-0-2----2------2-2-----0-0-----0-0-----0-0-----------|
D|---3---------------2-0-2-----2---3---------------------------------------|
A|-------------------3-2-0-------------------------3-------3---------------|
E|-----------3-------x-3-x-----------------3-------------------------------|

After the first bridge, he talks for a little while hitting the C lick...then repeat the 
and bridge again.

Whistling part comes next...just play the verse over it.  Again, at the end of the 
keep hitting the C lick.

Immigration Dude is next...play the verse and bridge...Play C lick over the talking afterword.

Justice Guy is next...verse is the same but the bridge is a little different...

Bridge*: 2x
     Fmaj7    G       C       C      Fmaj7    G        C       C
e|-------------------------------------------------------------------------|
B|-----1-1-----3-3-----1-1-----1-1-----1-1-----3-3-----1-1-----1-1---------|
G|-----2-2-----0-0-----0-0-----0-0-----2-2-----0-0-----0-0-----0-0---------|
D|---3-------------------------------3-------------------------------------|
A|-------------------3-------3-----------------------3-------3-------------|
E|-----------3-------------------------------3-----------------------------|

    Fmaj7   G      C G*Am              AmAmAmAmAm   Fmaj7   G    C    C
e|-----------------0-0-0-let-ring-------0-0-0-0-0--------------------------|
B|---1-1-----3-3---1-1-1-let-ring-------1-1-1-1-1-----1-1----3-3--1-1---1-1|
G|---2-2-----0-0---0-0-2-let-ring-------2-2-2-2-2-----2-2----0-0--0-0---0-0|
D|-3---------------2-0-2-let-ring-------2-2-2-2-2---3----------------------|
A|-----------------3-2-0-let-ring-------0-0-0-0-0----------------3----3----|
E|---------3-------x-3-x----------------x-x-x-x-x----------3---------------|
                                        D D U U D

Outro:
       F        G        F        G        C     G** C
e|------1--------3--------1--------3--------0-----x--0---------------------|
B|-----1-1------3-3------1-1------3-3------1-1-1--3--1---------------------|
G|----2---2----0---0----2---2----0---0----0---0---0--0-(let chord ring)----|
D|---3-----------------3--------------------------0--2---------------------|
A|---------------------------------------3--------2--3---------------------|
E|------------3-----------------3-----------------3--x---------------------|

             C
*C lick: e|-----------|
         B|----1-1----|
         G|----0-0----|
         D|-----------|
         A|--3--------|
         E|-----------|

Parts:
Awesome Man
   Verse 2x
   Bridge 1x

C lick

Drug-Free Boy
   Verse 2x
   Bridge 1x

Whistling
   Verse 1x

C lick

Immigration Dude:
   Verse 2x
   Bridge 1x

C lick

Justice Guy:
   Verse 2x
   Bridge* 2x

Outro 1x
comments
We did not receive enough feedback on this tab! Please rate:
print report bad tab
1 2 3 4 5
I want to post or [tab]
guest
You may want to rate the tab now too:
select rating
Please do not post tabs as comments. Select "correction" instead!