Oops, an error
Loading. Please wait.

Voices In My Head Tab

version 1
version 1

Whole song

4,642 views 3 this week
7 commentsread comments
1 2 3 4 5
x 3
add to favorites
launch autoscroll
font size
0
reset
how to read this tab
guitar tuner
Autoscroll
slow
fast
+/-
esc
set tempo
stop
Help us to improve Ultimate-Guitar.com Take our survey!
×
Author
*intro**verse*


e|---------3-------------------3------------|
B|---------3-------------------3------------|
G|---------0-------------------0------------|
D|---------0-------------------0------------|
A|---------2-----2--0--2-------2-----2--0--2|
E|------3------------------3----------------|

Thank You All, For Comming To My Show,
You've Been Great, But Now I Have To Go,


e|---------0-------------------0------------|
B|---------0-------------------0------------|
G|---------0-------------------0------------|
D|---------0-------------------0------------|
A|---------2-----2--0--2-------2-----2--0--2|
E|------0------------------0----------------|

Everyone Had A Super Time I Hope,

e|---------3-------------------3------------|
B|---------3-------------------3------------|
G|---------0-------------------0------------|
D|---------0-------------------0------------|
A|---------2-----2--0--2-------2-----2--0--2|
E|------3------------------3----------------|

Some Songs Tend To Push The Other Lobe

*chorus*

e|------------------------------------------|
B|------------------------------------------|
G|-------5-----5------7----7----------------|
D|-------5-----5------7----7----------------|
A|-----3-----3------5----5------------------|
E|------------------------------------------|

These Are Things That I Have Said,
But There Are Voices in My Head,
And if You Could Hear Them,
This Is What They'd Say.





Suggest correction
Give kudos to tab author, rate the tab!
1 2 3 4 5
comments
print report bad tab
7 comments total. Showing first comments.
-1 reply
muzakaholic 20 Feb 23, 2006 10:41 PM

you got it backwards it's

e|-------
b|-------
G|-------
D|-------
A|-0-2-0-
E|-------

on the picking parts between strumming the G chord and starting the pattern over again

the chorus is wrong too it's more complex picking than that but it sound good nonetheless

-1 reply
muzakaholic 20 Feb 23, 2006 10:49 PM

the chorus is

e|------------------------------|
B|------------------------------|
G|-------5------------7---------|
D|-------5------------7---------| x3
A|-----3----2-3-2---5----3-5-3--|
E|------------------------------|

+2 reply
duffmansweenie 54 Apr 20, 2006 10:18 PM

its push the envelope

guest
You may want to rate the tab now too:
select rating
Wanna post a correction for this tab? Suggest correction