Oops, an error
Loading. Please wait.

What If That Guy From Smashing Pumpkins Lost His Car Keys Tab

version 2
version 2

Whole song

Interactive

1,005 views 1 this week
no commentswrite comment
1 2 3 4 5
please rate
add to favorites
launch autoscroll
font size
0
reset
how to read this tab
guitar tuner
Tab Pro tools
  • play this tab
  • loop segment
  • change instrument
  • show fretboard
  • metronome
×
Best way to learn
"What If That Guy From Smashing Pumpkins Lost His Car Keys"
Autoscroll
slow
fast
+/-
esc
set tempo
stop
Contributor
Difficulty
novice
          What If The Guy From Smashing Pumpkins Lost His Car Keys?             


                                                                   Stephen Lynch
Track 1



      E  E  E  E  E  E  E  E     E  E  E  E  E  E  E  E   
E||------------0-----------0--|-----------0-----------0--|
B||---------1-----------1-----|--------1-----------1-----|
G||*-----2-----------2--------|-----2-----------2--------|
D||*--3-----------3-----------|--3-----------3-----------|
A||---------------------------|--------------------------|
E||---------------------------|--------------------------|


  E  E  E  E  E  E  E  E     E  E  E  E  E  E  E  E     
-----------0-----------0--|-----------0-----------0---||
--------1-----------1-----|--------1-----------1------||
-----2-----------2--------|-----2-----------2--------*||
--2-----------2-----------|--2-----------2-----------*||
--------------------------|---------------------------||
--------------------------|---------------------------||


                    Where the fuck are my car keys?     
  E  E  E  E  E  E  E                               E   
-----------0----------------------------------------0--|
--------1-----------1----------------------------------|
-----2-----------2-------------------------------------|
--3-----------3----------------------------------------|
-------------------------------------------------------|
-------------------------------------------------------|


  E  E  E  E  E  E  E  E   
-----------0-----------0--|
--------1-----------1-----|
-----2-----------2--------|
--3-----------3-----------|
--------------------------|
--------------------------|


                    They were right here IN MY HAND!     
  E  E  E  E  E  E  E                                E   
-----------0-----------------------------------------0--|
--------1-----------1-----------------------------------|
-----2-----------2--------------------------------------|
--2-----------2-----------------------------------------|
--------------------------------------------------------|
--------------------------------------------------------|


                                               I had em just a SECOND A-go.     
  E  E  E  E  E  E  E  E     E  E  E  E  E  E  E                            E   
-----------0-----------0--|-----------0-------------------------------------0--|
--------1-----------1-----|--------1-----------1-------------------------------|
-----2-----------2--------|-----2-----------2----------------------------------|
--2-----------2-----------|--3-----------3-------------------------------------|
--------------------------|----------------------------------------------------|
--------------------------|----------------------------------------------------|


  E  E  E  E  E  E  E  E     E  E  E  E  E  E  E  E   
-----------0-----------0--|-----------0-----------0--|
--------1-----------1-----|--------1-----------1-----|
-----2-----------2--------|-----2-----------2--------|
--3-----------3-----------|--2-----------2-----------|
--------------------------|--------------------------|
--------------------------|--------------------------|


  E  E  E  E  E  E  E  E   
-----------0-----------0--|
--------1-----------1-----|
-----2-----------2--------|
--2-----------2-----------|
--------------------------|
--------------------------|


                    Did I leave them HERE IN THE KITCHEN!?     
  E  E  E  E  E  E  E                                      E   
-----------0-----------------------------------------------0--|
--------1-----------1-----------------------------------------|
-----2-----------2--------------------------------------------|
--3-----------3-----------------------------------------------|
--------------------------------------------------------------|
--------------------------------------------------------------|


  E  E  E  E  E  E  E  E   
-----------0-----------0--|
--------1-----------1-----|
-----2-----------2--------|
--3-----------3-----------|
--------------------------|
--------------------------|


                    Or under the CUSIONS of the COUCH!?     
  E  E  E  E  E  E  E                                   E   
-----------0--------------------------------------------0--|
--------1-----------1--------------------------------------|
-----2-----------2-----------------------------------------|
--2-----------2--------------------------------------------|
-----------------------------------------------------------|
-----------------------------------------------------------|


                                               I can't find them ANY-where.     
  E  E  E  E  E  E  E  E     E  E  E  E  E  E  E                            E   
-----------0-----------0--|-----------0-------------------------------------0--|
--------1-----------1-----|--------1-----------1-------------------------------|
-----2-----------2--------|-----2-----------2----------------------------------|
--2-----------2-----------|--3-----------3-------------------------------------|
--------------------------|----------------------------------------------------|
--------------------------|----------------------------------------------------|


                                               ANY-wh...     
  E  E  E  E  E  E  E  E     E  E  E  E  E  E  E         E   
-----------0-----------0--|-----------0------------------0--|
--------1-----------1-----|--------1-----------1------------|
-----2-----------2--------|-----2-----------2---------------|
--3-----------3-----------|--2-----------2------------------|
--------------------------|---------------------------------|
--------------------------|---------------------------------|


  Oh. . .Here they are.                                           
                           ^                                      
  W                        W                   W                  
------------------------|--0----------------|--L----------------||
------------------------|--1----------------|--L----------------||
------------------------|--2----------------|--L----------------||
------------------------|--3----------------|--L----------------||
------------------------|-------------------|-------------------||
------------------------|-------------------|-------------------||




Duration Legend
---------------
W - whole
H - half
Q - quarter
E - 8th
S - 16th
T - 32nd
X - 64th
. - note dotted
|-n-|  - n-tuplets


Tablature Legend
----------------
L - tied note
x - dead note
g - grace note
(n) - ghost note
> - accentuded note
NH - natural harmonic
AH - artificial harmonic
TH - tapped harmonic
SH - semi harmonic
PH - pitch harmonic
h - hammer on
p - pull off
b - bend
br - bendRelease
pb - preBend
pbr - preBendRelease
brb - bendReleaseBend
\n/ - tremolo bar dip
\n - tremolo bar dive
-/n - tremolo bar Release up
/n\ - tremolo bar inverted dip
/n - tremolo bar return
-\n - tremolo bar Release down
S - shift slide
s - legato slide
/ -  slide into from below or out of upwards
\ -  slide into from above or out of downwards
~ - vibrato
W - wide vibrato
tr - trill
TP - tremolo picking
T - tapping
S - slap
P - pop
< - fade in
^ - brush up
v - brush down
comments
We did not receive enough feedback on this tab! Please rate:
print report bad tab
1 2 3 4 5
I want to post or [tab]
guest
You may want to rate the tab now too:
select rating
Please do not post tabs as comments. Select "correction" instead!