Oops, an error
Loading. Please wait.

Traffic Jam tab

version 1
version 1

Whole song

7,535 views 3 this week
2 commentsread comments
1 2 3 4 5
2 more votes to show rating
add to favorites
×
Save as Personal and add changes to this tab that will be seen only by you. Learn more ›
×
You can save this tab as Personal to edit and correct it or add notes. All changes will be seen only by you. Learn more »
launch autoscroll
font size
0
reset
how to read this tab
guitar tuner
edit
Autoscroll
slow
fast
+/-
esc
set tempo
stop
Author
Difficulty
This is acustic version of Stephen Marleys Traffic jam.

Check this first----->  http://www.youtube.com/watch?v=INZ61rp-JiY

e------------------------------------------------------------------|
B------------------------------------------------------------------|
G------------------------------------------------------------------|
D--------------2----------------2------------2-----------2---------|
A---------33323------------33323--------33323-------33323----------|
E--33--33-----------33--33---------33-33------33-33----------------|

            
            
Suggest correction
Creating personal tab
Creating personal tab
You can edit any tab online and save it as your Personal.

You can edit, replace or remove any tab part or add personal notes – all changes will be seen only by you.

Personal tabs can be accessed anytime from any device, even offline.
Learn more »
Give kudos to tab author, rate the tab!
1 2 3 4 5
comments
print report bad tab
2 comments total.
0 reply
Lixeno 100 Oct 20, 2007 05:33 AM

More like this for the video:

--------------------------
--------------------------
--------------------------
--------------------------
------------5-5-5-4-5-7---
---5-5--5-5---------------

0 reply
Hippie101 10 Apr 28, 2008 06:14 PM

Great tabs! Both are great becaue there tabs you can use on a bass and guitar.

Peace.

guest
You may want to rate the tab now too:
select rating
Wanna post a correction for this tab? Suggest correction