Oops, an error
Loading. Please wait.

All These Things Tab

version 1
version 1

Whole song

6,034 views 6 this week
no commentswrite comment
1 2 3 4 5
x 4
add to favorites
×
Save as Personal and add changes to this tab that will be seen only by you. Learn more ›
×
You can save this tab as Personal to edit and correct it or add notes. All changes will be seen only by you. Learn more »
save as personal
new!
launch autoscroll
font size
0
reset
how to read this tab
guitar tuner
Autoscroll
slow
fast
+/-
esc
set tempo
stop
Author
Capo
3rd fret
  All these things - Stephen Speaks
-----------------------------------------------------------------------------
Tabbed by: Chzbandit
Email:corydt@okstate.edu

No one has tabbed this and its such an awesome song so i did it. Hope you enjoy it i know my girl loves it.

Tuning:Standard
Capo 3rd fret
               
  Maybe its her...            
e|--------------------------------------------------------------------|
B|-0-----1-0--1-----1-1-----1---5-3-1-0-----1-0-----------------------| 
G|---0----------0-------0-----0---------0-----------------------------|
D|-----0------1---1-0-0---0-0-------------0---------------------------|
A|------------------------------3-2-0---------------------------------|    
E|-3-----3-3--------------------------3-----3-3-----------------------|
  
  It could be all these things...
e|---------------------------------|
B|-1-3-5-3-1--0-----1-0------------|
G|--------------0------------------|
D|----------------0----------------|
A|-0-2-3-2-0-----------------------|
E|------------3-----3-3------------|

  Cause i love to see her...
e|---------------------------------|
B|-5-7-8-----8-5-3-1---1-3-5-------|
G|-------0-------------------------|
D|---------0-----------------------|
A|-3-5-7-----7-3-2-0---0-2-3-------|
E|---------------------------------|

Lyrics:
Maybe it's her face, no makeup at all
As she tells me she's not beautiful
Maybe it's her hair, soft golden and wind blown
As we drive through the streets of town
It could be all these things
But I think it's her smile
Maybe it's her laugh when she throws back and sighs
Or her eyebrows when I do something stupid
Maybe it's her smell, the lotion she wears
Or how my hands smell like country pear for days
You know it could be all these things
But I think mostly it is her smile
Cause I love to see her smile back at me
And I know she is happy
Maybe it's her touch, the feel of her hands
When she puts her tiny fingers in mine
Maybe it's her eyes gently searching my soul
Still nothing stirs me like when I see those lips roll
and I see her smile
Cause I love to see her smile back at me
And I know she is happy
Suggest correction
comments
print report bad tab
guest
You may want to rate the tab now too:
select rating
Wanna post a correction for this tab? Suggest correction