Oops, an error
Loading. Please wait.

Complete tab

version 1
version 1

Whole song

1,290 views 3 this week
1 commentread comment
1 2 3 4 5
1 last vote to show rating
add to favorites
×
Save as Personal and add changes to this tab that will be seen only by you. Learn more ›
×
You can save this tab as Personal to edit and correct it or add notes. All changes will be seen only by you. Learn more »
launch autoscroll
font size
0
reset
how to read this tab
guitar tuner
edit
Autoscroll
slow
fast
+/-
esc
set tempo
stop
"Complete" by Stephen Speaks


This is my first tab ever. I got the main riff down right, i think. The other
stuff i just play as chords and pick out.
If theres anything wrong or you have any suggestions or would like me to tab out
another song, email me at i_am_meeko@hotmail.com

E|----------------------6---------------------------------|
B|--------------4--------------------------4------4-------|
G|----3---3-----5---------------3---3------5------3-------|
D|---5---3---------------------5---3----------------------|
A|--6---5---------------------6---5-----------------------|
E|-----------4-------------------------4------------------|



If i lay my voice down at Your feet 
would you still hear my song echoing 
i might end this game of hide and seek
            Bb
because in You



Ab             Bb
i am complete 
           Ab
oh in You 
            Bb
i am complete 


all the voices i hear in my sleep 
all the sins of my past echoing
to stay off my knees and on my feet 
oh but they, 
they can't complete 
cause in You i am complete

Ohhhhhhhhhh........
Ohhhhhhhhhh.........
Ohhhhhhhhhh........
Ohhhhhhhh.....

I am complete [5x]
If I lay my voice down at your feet



GREAT song. I love Stephen Speaks, and I hope the tab can be more widely found soon.

            
            
Suggest correction
Creating personal tab
Creating personal tab
You can edit any tab online and save it as your Personal.

You can edit, replace or remove any tab part or add personal notes – all changes will be seen only by you.

Personal tabs can be accessed anytime from any device, even offline.
Learn more »
Give kudos to tab author, rate the tab!
1 2 3 4 5
comments
print report bad tab
1 comment total.
0 reply
auroraflare 10 Apr 23, 2005 08:00 PM

E|----------------------6---------------------------------|
B|---------------4---------------------------4----4-------|
G|----3---3-----5---------------3---3------5------3-------|
D|---5---3---------------------5---3----------------------|
A|--6---5---------------------6---5-----------------------|
E|-----------4-------------------------4------------------|
^^ I suggest you separate ^ ^this part of the tab

guest
Wanna post a correction for this tab? Suggest correction