Oops, an error
Loading. Please wait.

Passenger Seat Tab

version 1
version 1

Whole song

174,333 views 162 this week
no commentswrite comment
1 2 3 4 5
accurate
x 25
add to favorites
launch autoscroll
font size
0
reset
how to read this tab
guitar tuner
Autoscroll
slow
fast
+/-
esc
set tempo
stop
Help us to improve Ultimate-Guitar.com Take our survey!
×
===============================================================================
Passenger Seat – Stephen Speaks
===============================================================================

This is a great song by the Stephen speaks we would like to dedicate this to our
classmates in PUP Comm. Jon also wants to dedicate this to Melissa.
Pls. rate it after used thanks for any comments or suggestion e-mail me at
jon2_83@yahoo.com. Enjoy....

Tabbed by: 
Jonathan Carmona
Christian Dioquino

Tuning:
Gtr 1 – Standard Tuning (E-A-D-G-B-e)
Gtr 2 – Standard Tuning Capo on 5 fret


[Intro]

Gtr 1
      G    G/F#    Em        Am     C9    Dsus - D
e|---333---333---000000----000000---333---333002--------------------|
B|---333---333---000000----111111---333---333333--------------------|
G|---000---000---000000----222222---000---222222--------------------|
D|---000---000---222222----222222---222---000000--------------------|
A|---222---xxx---222222----000000---333---xxxxxx--------------------|
E|---333-2-222-0-000000-0--xxxxxx-x-----x-xxxxxx--------------------|

Gtr 2
e|----------------2-2-0---------------------------------------------|
B|-------3-----3--3-3-3---------------------------------------------|
G|-----2---0h2----2-2-2---------------------------------------------|
D|---0--------------------------------------------------------------|
A|------------------------------------------------------------------|
E|------------------------------------------------------------------|


[Verse]

Gtr 1 (Same as Intro)

Gtr 2 
    
e|--22200--22222-----33333-------------------------------------------|
B|--33333--33333-----33333--333332222--------------------------------|
G|--22222--22222-----00000--000000000--------------------------------|
D|--00000--44444-----00000--222222222--------------------------------|
A|---------22222-----22222--000000000--------------------------------|
E|----------------0--33333--xxxxxxxxx--------------------------------|
    I look at her and have to smile . . . . .


[Chorus] (Same as Verse)

[Bridge]


Gtr 1

e|---333333--22222--333--222200--------------------------------------|
B|---333333--33333--333--333333--------------------------------------|
G|---000000--22222--000--222222--------------------------------------|
D|---222222--44444--333--000000--------------------------------------|
A|---333333--22222--333----------------------------------------------|
E|-------------------------------------------------------------------|
     Oh and I know this love grows. . . . . 

Gtr 2

e|---333333--222222--333-------------------------------------------------|
B|---333333--333333--333--333222-----------------------------------------|
G|---000000--222222--000--000000-----------------------------------------|
D|---000000--444444--000--222222-----------------------------------------|
A|---xxxxxx--222222--xxx-------------------------------------------------|
E|---333333----------333-------------------------------------------------|
     Oh and I know this love grows. . . . . 


[Solo] (2:43) Thanks to Christian for tabbing this out

e|-----------------------------------------------------------------------|
B|------------------8h10-10-8h10-----------------------------------------|
G|--------------7-9--------------9---------------------------------------|
D|---------9-10----------------------------------------------------------|
A|--12b-10---------------------------------------------------------------|
E|-----------------------------------------------------------------------|
           {this part is very fast}

e|-----------------------------------------------------------------------|
B|-----------------------------------------------------------------------|
G|-----------------------------------------------------------------------|
D|--9-10-9-10/12---12-10-9-9/10---12-10-9-9/10----9-9/10-----------------|
A|---------------------------------------------10------------------------|
E|-----------------------------------------------------------------------|

e|-----------------------------------------------------------------------|
B|-----------8---10-8-10/13--12-13-12-13/15--13-12-12---12/13-10---------|
G|--7h9b—7h9-------------------------------------------------------------|
D|-----------------------------------------------------------------------|
A|-----------------------------------------------------------------------|
E|-----------------------------------------------------------------------|

e|-----------------------------------------------------------------------|
B|--10p8-10p8—7h8-8------------------------------------------------------|
G|-----------------------------------------------------------------------|
D|-------------------10h12p10—10h12-9------------------------------------|
A|--------------------------------------12b—12b10~~----------------------|
E|-----------------------------------------------------------------------|


Legend:
| /  slide up
| \  slide down
| h  hammer-on
| p  pull-off
| ~  let ring
| b  bend
| x  Mute note


Lyrics:

I look at her and have to smile
As we go driving for a while 
Her Hair Blowing in the open window of my car
And as we go the traffic lights
Watch them glimmer in her eyes
In the darkness of the evening

And I've got all that I need
Right here in the passenger seat
Oh and I can't keep my eyes on the road
Knowing that she's inches from me

We stop to get something to drink
My mind pounds and I can't think
Scared to death to say i love her
Then a moon peeks from the clouds
Hear my heart that beats so loud
Try to tell her simply

That I've got all the I need
Right here in the passenger seat
Oh and I can't keep my eyes on the road
Knowing that she's inches from me

Oh and I've got all the I need
Right here in the passenger seat
Oh and I can't keep my eyes on the road
Knowing that she's inches from me

Oh and I know this love grow

Oh I've got all the I need
Right here in the passenger seat
Oh and I can't keep my eyes on the road
Knowing that she's inches from me

And I've got all that I need
Right here in the passenger seat
Oh and I can't keep my eyes on the road
Knowing that she's inches from me

And I've got all that I need
Right here in the passenger seat
Oh and I can't keep my eyes on the road
Knowing that she's inches from me

And I've got all that I need
Right here in the passenger seat
Suggest correction new What's this?
You can suggest a correction to this tab. Community and Mods will review your correction and vote to approve or reject it.
comments
print report bad tab
guest
You may want to rate the tab now too:
select rating
Please do not post tabs as comments. Select "correction" instead!