Oops, an error
Loading. Please wait.

Whiskey Before Breakfast Tab

18,069 views 27 this week
no commentswrite comment
1 2 3 4 5
please rate
add to favorites
launch autoscroll
font size
0
reset
how to read this tab
guitar tuner
Tab Pro tools
  • play this tab
  • loop segment
  • change instrument
  • show fretboard
  • metronome
×
Best way to learn
"Whiskey Before Breakfast"
Autoscroll
slow
fast
+/-
esc
set tempo
stop
Contributor
-----------------------------------------------------------------------------
                      Flat top box/Whiskey before breakfast
-----------------------------------------------------------------------------

Tabbed by:Nick Knight
Email:nick.79701@yahoo.com

tuning:standard         capo2ND fret

e|-------0-0-0-0-0-------------------1-1-----0-0---------------0-0-0-0-0----|
B|-------1-1-1-1-1-------------------1-1-----1-1---------------1-1-1-1-1----|
G|---0---0-0-0-0-0-0h2p0-------------2-2-----0-0-----------0---0-0-0-0-0-0h2|
D|---0h2-2-2-2-2-2-------2p0---0h2-3-3-3-0h2-2-2-----------0h2-2-2-2-2-2----|
A|-3-----3-3-3-3-3-----------3-------x-x-----x-x-3/5-0h2-3-----3-3-3-3-3----|
E|-------x-x-x-x-x-------------------x-x-----x-x---------------x-x-x-x-x----|

e|---------------------------------0-0-0-0-0-0-0-0-0--------0-0-0-0-0-------|
B|------------------0-1---1--------1-1-1-1-1-1-1-1-1--------1-1-1-1-1-------|
G|-p0------------0-2----2-0h2p0----0-0-0-0-0-0-0-0-0--0-0---0-0-0-0-0-0h2p0-|
D|----2p0---0h2-3------------------2-2-2-2-2-2-2-2-2--0-0h2-2-2-2-2-2-------|
A|--------3--------------------2h3-3-3-3-3-3-3-3-3-3-3------3-3-3-3-3-------|
E|---------------------------------x-x-x-x-x-x-x-x-x--------x-x-x-x-x-------|

e|--------------------------------------0-0-0-0-0---------------------------|
B|-------------1--1--0------------------1-1-1-1-1---------------------0-1---|
G|------------2--2--0-0-------------0---0-0-0-0-0-0h2p0------------0-2----2-|
D|-2p0---0h2-3--2--0----------------0h2-2-2-2-2-2-------2p0---0h2-3---------|
A|-----3---------------0h2p0---0-2-3----3-3-3-3-3-----------3---------------|
E|---------------------------3----------x-x-x-x-x---------------------------|

e|----------0-0-0-0-0-------------------0-0---0-0---------0-1h3p1---1-------|
B|-1--------1-1-1-1-1-1-----1-----------1-1---1-1-----3-3---------3---3h5p3-|
G|-0h2p0----0-0-0-0-0---2h4---2p0-------0-0---0-0---2-----------------------|
D|----------2-2-2-2-2-------------2p0---2-2---2-2-0-------------------------|
A|------2h3-3-3-3-3-3-----------------3-3-3-3-3-3---------------------------|
E|----------x-x-x-x-x-------------------x-x---x-x---------------------------|

e|-------0------------------------------------------0|
B|---3-1---1---1h3p1---1---1---------1---1----------1|
G|-4---------4-------2---2-0h2p0----2-2-2-2---------0|
D|-------------------------------2-3---2----0h2p0---2|
A|------------------------------------------------2-3|
E|--------------------------------------------------x|


    | /-slide up
    | h-hammer on
    | p-pull off
    | x-mute note
----------------------------------------------------------------------------
============================================================================
    |
comments
We did not receive enough feedback on this tab! Please rate:
print report bad tab
1 2 3 4 5
I want to post or [tab]
guest
You may want to rate the tab now too:
select rating
Please do not post tabs as comments. Select "correction" instead!