Oops, an error
Loading. Please wait.

Born To Be Wild Bass Tab

version 1
version 1

Whole song

125,539 views 288 this week
4 commentsread comments
1 2 3 4 5
accurate
x 10
add to favorites
launch autoscroll
font size
0
reset
guitar tuner
Autoscroll
slow
fast
+/-
esc
set tempo
stop
Help us to improve Ultimate-Guitar.com Take our survey!
×
Born To Be Wild - Steppenwolf
bass comes in at about 0:03--after guitar plays one measure 


[Intro]

  (x3)
G|------------|7/9-7-9-7-----|
D|------------|-----9---9-7\-|
A|---5-7------|--------------|
E|5/7-7-------|--------------|


[Verse]

G|---------------------------------------------|
D|---------------------------------------------|
A|7-7-7-7--5-7-7-7-7-5-7-7-7-7-5-7-7-7-7-simile|
E|--------7---------7-7-------7----------------|


 [Prechorus riff]  [Prechorus end]
G|---------------9-7--|----------------|
D|5-5-5-7-7-7---5---7-|----5---7---5---|
A|-----------7-5-----7|7---------------|
E|--------------------|----------------|


[Chorus riff]

"born to be wild"
G|---------------|
D|---------------|
A|7--7-7--5--4-5-|
E|---------------|



************************************

| /  Slide up
| \  Slide down

************************************
Suggest correction
What's this?
You can suggest a correction to this tab. Community and Mods will review your correction and vote to approve or reject it.
comments
print report bad tab
4 comments total. Showing first comments.
+3 reply
tra102788 14 wrote on June 24 2004, 12:00 am

Those are pretty good tabs.... i can understand them, but it took me a bit to. I think it would be hard for someone to learn the song who wasn't very experienced, or who was trying to cram the song in the day before a gig or something. I personally suck at learning songs by ear so i rely on tabs like these. Overall, just think about that type of stuff when you're making the tabs.

+1 reply
Tabuco 19 wrote on April 29 2007, 02:31 pm

This song rocks! and is very good tabbed!!

+2 reply
railwayjim 18 wrote on August 18 2009, 12:55 pm

This isn't the bass line. Leave the Db (4) out of Your chorus riff for starters, the bass doesn't play it. Strike Your E (7)and D (5)only once each for a four count leting them ring over what the guitar and keys are playing.

guest
You may want to rate the tab now too:
select rating
Please do not post tabs as comments. Select "correction" instead!